  0
SECTION
  2
HEADER
  9
$ACADVER
  1
AC1027
  9
$ACADMAINTVER
 70
    83
  9
$DWGCODEPAGE
  3
ANSI_1252
  9
$LASTSAVEDBY
  1
chadclouser
  9
$REQUIREDVERSIONS
160
                 0
  9
$INSBASE
 10
0.0
 20
0.0
 30
0.0
  9
$EXTMIN
 10
7.822990362868608
 20
-50.45384359328554
 30
0.0
  9
$EXTMAX
 10
54.89769941718544
 20
-21.98765464377437
 30
0.0
  9
$LIMMIN
 10
0.0
 20
0.0
  9
$LIMMAX
 10
12.0
 20
9.0
  9
$ORTHOMODE
 70
     1
  9
$REGENMODE
 70
     1
  9
$FILLMODE
 70
     1
  9
$QTEXTMODE
 70
     0
  9
$MIRRTEXT
 70
     0
  9
$LTSCALE
 40
1.0
  9
$ATTMODE
 70
     1
  9
$TEXTSIZE
 40
12.10402048440558
  9
$TRACEWID
 40
0.05
  9
$TEXTSTYLE
  7
Standard
  9
$CLAYER
  8
0
  9
$CELTYPE
  6
ByLayer
  9
$CECOLOR
 62
   256
  9
$CELTSCALE
 40
1.0
  9
$DISPSILH
 70
     0
  9
$DIMSCALE
 40
1.0
  9
$DIMASZ
 40
1.0
  9
$DIMEXO
 40
0.05
  9
$DIMDLI
 40
0.505
  9
$DIMRND
 40
0.0
  9
$DIMDLE
 40
0.675
  9
$DIMEXE
 40
0.675
  9
$DIMTP
 40
0.0
  9
$DIMTM
 40
0.0
  9
$DIMTXT
 40
1.0
  9
$DIMCEN
 40
0.09
  9
$DIMTSZ
 40
0.0
  9
$DIMTOL
 70
     0
  9
$DIMLIM
 70
     0
  9
$DIMTIH
 70
     0
  9
$DIMTOH
 70
     0
  9
$DIMSE1
 70
     0
  9
$DIMSE2
 70
     0
  9
$DIMTAD
 70
     0
  9
$DIMZIN
 70
     3
  9
$DIMBLK
  1
ARCHTICK
  9
$DIMASO
 70
     1
  9
$DIMSHO
 70
     1
  9
$DIMPOST
  1

  9
$DIMAPOST
  1

  9
$DIMALT
 70
     0
  9
$DIMALTD
 70
     2
  9
$DIMALTF
 40
25.4
  9
$DIMLFAC
 40
0.9999999999999998
  9
$DIMTOFL
 70
     1
  9
$DIMTVP
 40
0.0
  9
$DIMTIX
 70
     0
  9
$DIMSOXD
 70
     0
  9
$DIMSAH
 70
     0
  9
$DIMBLK1
  1

  9
$DIMBLK2
  1

  9
$DIMSTYLE
  2
HUNTER-1.5INCH
  9
$DIMCLRD
 70
   256
  9
$DIMCLRE
 70
   256
  9
$DIMCLRT
 70
   256
  9
$DIMTFAC
 40
1.0
  9
$DIMGAP
 40
0.04
  9
$DIMJUST
 70
     0
  9
$DIMSD1
 70
     0
  9
$DIMSD2
 70
     0
  9
$DIMTOLJ
 70
     1
  9
$DIMTZIN
 70
     0
  9
$DIMALTZ
 70
     0
  9
$DIMALTTZ
 70
     0
  9
$DIMUPT
 70
     0
  9
$DIMDEC
 70
     0
  9
$DIMTDEC
 70
     0
  9
$DIMALTU
 70
     2
  9
$DIMALTTD
 70
     2
  9
$DIMTXSTY
  7
Hunter
  9
$DIMAUNIT
 70
     0
  9
$DIMADEC
 70
     0
  9
$DIMALTRND
 40
0.0
  9
$DIMAZIN
 70
     0
  9
$DIMDSEP
 70
    46
  9
$DIMATFIT
 70
     1
  9
$DIMFRAC
 70
     0
  9
$DIMLDRBLK
  1
Open90
  9
$DIMLUNIT
 70
     4
  9
$DIMLWD
 70
    -1
  9
$DIMLWE
 70
    -2
  9
$DIMTMOVE
 70
     2
  9
$DIMFXL
 40
1.0
  9
$DIMFXLON
 70
     0
  9
$DIMJOGANG
 40
0.7853981633974483
  9
$DIMTFILL
 70
     0
  9
$DIMTFILLCLR
 70
     0
  9
$DIMARCSYM
 70
     0
  9
$DIMLTYPE
  6

  9
$DIMLTEX1
  6

  9
$DIMLTEX2
  6

  9
$DIMTXTDIRECTION
 70
     0
  9
$LUNITS
 70
     4
  9
$LUPREC
 70
     4
  9
$SKETCHINC
 40
0.1
  9
$FILLETRAD
 40
0.0
  9
$AUNITS
 70
     0
  9
$AUPREC
 70
     2
  9
$MENU
  1
.
  9
$ELEVATION
 40
0.0
  9
$PELEVATION
 40
0.0
  9
$THICKNESS
 40
0.0
  9
$LIMCHECK
 70
     0
  9
$CHAMFERA
 40
0.0
  9
$CHAMFERB
 40
0.0
  9
$CHAMFERC
 40
0.0
  9
$CHAMFERD
 40
0.0
  9
$SKPOLY
 70
     0
  9
$TDCREATE
 40
2454770.393585949
  9
$TDUCREATE
 40
2454770.601919282
  9
$TDUPDATE
 40
2458066.628213761
  9
$TDUUPDATE
 40
2458066.836547095
  9
$TDINDWG
 40
96.8362833565
  9
$TDUSRTIMER
 40
96.8362831829
  9
$USRTIMER
 70
     1
  9
$ANGBASE
 50
0.0
  9
$ANGDIR
 70
     0
  9
$PDMODE
 70
     0
  9
$PDSIZE
 40
0.0
  9
$PLINEWID
 40
0.0
  9
$SPLFRAME
 70
     0
  9
$SPLINETYPE
 70
     6
  9
$SPLINESEGS
 70
     8
  9
$HANDSEED
  5
AE7F7
  9
$SURFTAB1
 70
     6
  9
$SURFTAB2
 70
     6
  9
$SURFTYPE
 70
     6
  9
$SURFU
 70
     6
  9
$SURFV
 70
     6
  9
$UCSBASE
  2

  9
$UCSNAME
  2

  9
$UCSORG
 10
0.0
 20
0.0
 30
0.0
  9
$UCSXDIR
 10
1.0
 20
0.0
 30
0.0
  9
$UCSYDIR
 10
0.0
 20
1.0
 30
0.0
  9
$UCSORTHOREF
  2

  9
$UCSORTHOVIEW
 70
     0
  9
$UCSORGTOP
 10
0.0
 20
0.0
 30
0.0
  9
$UCSORGBOTTOM
 10
0.0
 20
0.0
 30
0.0
  9
$UCSORGLEFT
 10
0.0
 20
0.0
 30
0.0
  9
$UCSORGRIGHT
 10
0.0
 20
0.0
 30
0.0
  9
$UCSORGFRONT
 10
0.0
 20
0.0
 30
0.0
  9
$UCSORGBACK
 10
0.0
 20
0.0
 30
0.0
  9
$PUCSBASE
  2

  9
$PUCSNAME
  2

  9
$PUCSORG
 10
0.0
 20
0.0
 30
0.0
  9
$PUCSXDIR
 10
1.0
 20
0.0
 30
0.0
  9
$PUCSYDIR
 10
0.0
 20
1.0
 30
0.0
  9
$PUCSORTHOREF
  2

  9
$PUCSORTHOVIEW
 70
     0
  9
$PUCSORGTOP
 10
0.0
 20
0.0
 30
0.0
  9
$PUCSORGBOTTOM
 10
0.0
 20
0.0
 30
0.0
  9
$PUCSORGLEFT
 10
0.0
 20
0.0
 30
0.0
  9
$PUCSORGRIGHT
 10
0.0
 20
0.0
 30
0.0
  9
$PUCSORGFRONT
 10
0.0
 20
0.0
 30
0.0
  9
$PUCSORGBACK
 10
0.0
 20
0.0
 30
0.0
  9
$USERI1
 70
     0
  9
$USERI2
 70
     0
  9
$USERI3
 70
     0
  9
$USERI4
 70
     0
  9
$USERI5
 70
     0
  9
$USERR1
 40
0.0
  9
$USERR2
 40
0.0
  9
$USERR3
 40
0.0
  9
$USERR4
 40
0.0
  9
$USERR5
 40
12.07090419886942
  9
$WORLDVIEW
 70
     1
  9
$SHADEDGE
 70
     3
  9
$SHADEDIF
 70
    70
  9
$TILEMODE
 70
     1
  9
$MAXACTVP
 70
    64
  9
$PINSBASE
 10
0.0
 20
0.0
 30
0.0
  9
$PLIMCHECK
 70
     0
  9
$PEXTMIN
 10
0.0145643619954186
 20
0.0132348038147043
 30
-0.0000000349181948
  9
$PEXTMAX
 10
10.27458914444549
 20
7.796388667592996
 30
0.0000000814935746
  9
$PLIMMIN
 10
-0.7005418191744587
 20
-0.2281003861915408
  9
$PLIMMAX
 10
10.99237156665231
 20
8.039616149241531
  9
$UNITMODE
 70
     0
  9
$VISRETAIN
 70
     1
  9
$PLINEGEN
 70
     0
  9
$PSLTSCALE
 70
     1
  9
$TREEDEPTH
 70
  3020
  9
$CMLSTYLE
  2
Standard
  9
$CMLJUST
 70
     1
  9
$CMLSCALE
 40
8.0
  9
$PROXYGRAPHICS
 70
     1
  9
$MEASUREMENT
 70
     0
  9
$CELWEIGHT
370
    -1
  9
$ENDCAPS
280
     0
  9
$JOINSTYLE
280
     0
  9
$LWDISPLAY
290
     0
  9
$INSUNITS
 70
     1
  9
$HYPERLINKBASE
  1

  9
$STYLESHEET
  1
Standard Pen Settings.ctb
  9
$XEDIT
290
     1
  9
$CEPSNTYPE
380
     0
  9
$PSTYLEMODE
290
     1
  9
$FINGERPRINTGUID
  2
{042633EE-7B2A-4DA3-9B1E-3D8485D08136}
  9
$VERSIONGUID
  2
{5441097A-F5BF-4163-BBA8-EF485C0E1284}
  9
$EXTNAMES
290
     1
  9
$PSVPSCALE
 40
0.0
  9
$OLESTARTUP
290
     0
  9
$SORTENTS
280
   127
  9
$INDEXCTL
280
     0
  9
$HIDETEXT
280
     1
  9
$XCLIPFRAME
280
     0
  9
$HALOGAP
280
     0
  9
$OBSCOLOR
 70
   257
  9
$OBSLTYPE
280
     0
  9
$INTERSECTIONDISPLAY
280
     0
  9
$INTERSECTIONCOLOR
 70
   257
  9
$DIMASSOC
280
     2
  9
$PROJECTNAME
  1

  9
$CAMERADISPLAY
290
     0
  9
$LENSLENGTH
 40
50.0
  9
$CAMERAHEIGHT
 40
0.0
  9
$STEPSPERSEC
 40
2.0
  9
$STEPSIZE
 40
6.0
  9
$3DDWFPREC
 40
2.0
  9
$PSOLWIDTH
 40
0.25
  9
$PSOLHEIGHT
 40
4.0
  9
$LOFTANG1
 40
1.570796326794896
  9
$LOFTANG2
 40
1.570796326794896
  9
$LOFTMAG1
 40
0.0
  9
$LOFTMAG2
 40
0.0
  9
$LOFTPARAM
 70
     7
  9
$LOFTNORMALS
280
     1
  9
$LATITUDE
 40
37.795
  9
$LONGITUDE
 40
-122.394
  9
$NORTHDIRECTION
 40
0.0
  9
$TIMEZONE
 70
 -8000
  9
$LIGHTGLYPHDISPLAY
280
     1
  9
$TILEMODELIGHTSYNCH
280
     1
  9
$CMATERIAL
347
96
  9
$SOLIDHIST
280
     1
  9
$SHOWHIST
280
     1
  9
$DWFFRAME
280
     2
  9
$DGNFRAME
280
     0
  9
$REALWORLDSCALE
290
     1
  9
$INTERFERECOLOR
 62
     1
  9
$INTERFEREOBJVS
345
A3
  9
$INTERFEREVPVS
346
A0
  9
$CSHADOW
280
     0
  9
$SHADOWPLANELOCATION
 40
0.0
  0
ENDSEC
  0
SECTION
  2
CLASSES
  0
CLASS
  1
ACDBDICTIONARYWDFLT
  2
AcDbDictionaryWithDefault
  3
ObjectDBX Classes
 90
        0
 91
        1
280
     0
281
     0
  0
CLASS
  1
ACDBPLACEHOLDER
  2
AcDbPlaceHolder
  3
ObjectDBX Classes
 90
        0
 91
        1
280
     0
281
     0
  0
CLASS
  1
LAYOUT
  2
AcDbLayout
  3
ObjectDBX Classes
 90
        0
 91
        3
280
     0
281
     0
  0
CLASS
  1
DICTIONARYVAR
  2
AcDbDictionaryVar
  3
ObjectDBX Classes
 90
        0
 91
       13
280
     0
281
     0
  0
CLASS
  1
TABLESTYLE
  2
AcDbTableStyle
  3
ObjectDBX Classes
 90
     4095
 91
        1
280
     0
281
     0
  0
CLASS
  1
MATERIAL
  2
AcDbMaterial
  3
ObjectDBX Classes
 90
     1153
 91
        3
280
     0
281
     0
  0
CLASS
  1
VISUALSTYLE
  2
AcDbVisualStyle
  3
ObjectDBX Classes
 90
     4095
 91
       26
280
     0
281
     0
  0
CLASS
  1
EXACXREFPANELOBJECT
  2
ExAcXREFPanelObject
  3
EXAC_ESW
 90
     1025
 91
        0
280
     0
281
     0
  0
CLASS
  1
NPOCOLLECTION
  2
AcDbImpNonPersistentObjectsCollection
  3
ObjectDBX Classes
 90
     1153
 91
        0
280
     0
281
     0
  0
CLASS
  1
PLOTSETTINGS
  2
AcDbPlotSettings
  3
ObjectDBX Classes
 90
        0
 91
        6
280
     0
281
     0
  0
CLASS
  1
SORTENTSTABLE
  2
AcDbSortentsTable
  3
ObjectDBX Classes
 90
        0
 91
        1
280
     0
281
     0
  0
CLASS
  1
ACAD_EVALUATION_GRAPH
  2
AcDbEvalGraph
  3
ObjectDBX Classes
 90
     1153
 91
        0
280
     0
281
     0
  0
CLASS
  1
ACAECUSTOBJ
  2
AcAeEditorObj
  3
AcAeEditorObj
 90
     1024
 91
        0
280
     0
281
     0
  0
CLASS
  1
ACDB_DYNAMICBLOCKPURGEPREVENTER_VERSION
  2
AcDbDynamicBlockPurgePreventer
  3
ObjectDBX Classes
 90
     1153
 91
        0
280
     0
281
     0
  0
CLASS
  1
BLOCKVISIBILITYPARAMETER
  2
AcDbBlockVisibilityParameter
  3
ObjectDBX Classes
 90
     1153
 91
        0
280
     0
281
     0
  0
CLASS
  1
BLOCKVISIBILITYGRIP
  2
AcDbBlockVisibilityGrip
  3
ObjectDBX Classes
 90
     1153
 91
        0
280
     0
281
     0
  0
CLASS
  1
BLOCKGRIPLOCATIONCOMPONENT
  2
AcDbBlockGripExpr
  3
ObjectDBX Classes
 90
     1153
 91
        0
280
     0
281
     0
  0
CLASS
  1
ACDB_BLOCKREPRESENTATION_DATA
  2
AcDbBlockRepresentationData
  3
ObjectDBX Classes
 90
     1153
 91
        0
280
     0
281
     0
  0
CLASS
  1
BLOCKROTATIONPARAMETER
  2
AcDbBlockRotationParameter
  3
ObjectDBX Classes
 90
     1153
 91
        0
280
     0
281
     0
  0
CLASS
  1
BLOCKROTATIONGRIP
  2
AcDbBlockRotationGrip
  3
ObjectDBX Classes
 90
     1153
 91
        0
280
     0
281
     0
  0
CLASS
  1
BLOCKROTATEACTION
  2
AcDbBlockRotateAction
  3
ObjectDBX Classes
 90
     1153
 91
        0
280
     0
281
     0
  0
CLASS
  1
EXACTERMXREFMAP
  2
ExAcTermXrefMap
  3
EXAC_SERVICE
 90
     1025
 91
        0
280
     0
281
     0
  0
CLASS
  1
RASTERVARIABLES
  2
AcDbRasterVariables
  3
ISM
 90
        0
 91
        1
280
     0
281
     0
  0
CLASS
  1
SCALE
  2
AcDbScale
  3
ObjectDBX Classes
 90
     1153
 91
       37
280
     0
281
     0
  0
CLASS
  1
MLEADERSTYLE
  2
AcDbMLeaderStyle
  3
ACDB_MLEADERSTYLE_CLASS
 90
     4095
 91
        1
280
     0
281
     0
  0
CLASS
  1
CELLSTYLEMAP
  2
AcDbCellStyleMap
  3
ObjectDBX Classes
 90
     1152
 91
        1
280
     0
281
     0
  0
CLASS
  1
BLOCKLINEARPARAMETER
  2
AcDbBlockLinearParameter
  3
ObjectDBX Classes
 90
     1153
 91
        0
280
     0
281
     0
  0
CLASS
  1
BLOCKLINEARGRIP
  2
AcDbBlockLinearGrip
  3
ObjectDBX Classes
 90
     1153
 91
        0
280
     0
281
     0
  0
CLASS
  1
BLOCKSCALEACTION
  2
AcDbBlockScaleAction
  3
ObjectDBX Classes
 90
     1153
 91
        0
280
     0
281
     0
  0
CLASS
  1
WIPEOUT
  2
AcDbWipeout
  3
WipeOut|Product Desc: Object Enabler for WipeOut entity | Company: Autodesk, Inc. | WEB Address: www.autodesk.com
 90
     2175
 91
        0
280
     0
281
     1
  0
CLASS
  1
WIPEOUTVARIABLES
  2
AcDbWipeoutVariables
  3
"WipeOut|Product Desc:     WipeOut Dbx Application|Company:          Autodesk, Inc.|WEB Address:      www.autodesk.com"
 90
        0
 91
        1
280
     0
281
     0
  0
CLASS
  1
DIMASSOC
  2
AcDbDimAssoc
  3
"AcDbDimAssoc|Product Desc:     AcDim ARX App For Dimension|Company:          Autodesk, Inc.|WEB Address:      www.autodesk.com"
 90
        0
 91
        0
280
     0
281
     0
  0
CLASS
  1
AEC_REFEDIT_STATUS_TRACKER
  2
AecDbRefEditStatusTracker
  3
AecArchBase70|Product Desc: Autodesk Architectural Desktop 2007 |Company: Autodesk,Inc. |WEB Address: www.autodesk.com
 90
      129
 91
        0
280
     0
281
     0
  0
CLASS
  1
BLOCKPOLARPARAMETER
  2
AcDbBlockPolarParameter
  3
ObjectDBX Classes
 90
     1153
 91
        0
280
     0
281
     0
  0
CLASS
  1
BLOCKPOLARGRIP
  2
AcDbBlockPolarGrip
  3
ObjectDBX Classes
 90
     1153
 91
        0
280
     0
281
     0
  0
CLASS
  1
BLOCKSTRETCHACTION
  2
AcDbBlockStretchAction
  3
ObjectDBX Classes
 90
     1153
 91
        0
280
     0
281
     0
  0
CLASS
  1
BLOCKFLIPPARAMETER
  2
AcDbBlockFlipParameter
  3
ObjectDBX Classes
 90
     1153
 91
        0
280
     0
281
     0
  0
CLASS
  1
BLOCKFLIPGRIP
  2
AcDbBlockFlipGrip
  3
ObjectDBX Classes
 90
     1153
 91
        0
280
     0
281
     0
  0
CLASS
  1
BLOCKFLIPACTION
  2
AcDbBlockFlipAction
  3
ObjectDBX Classes
 90
     1153
 91
        0
280
     0
281
     0
  0
CLASS
  1
AEC_NOTIFICATION_TRACKER
  2
AecDbNotificationTracker
  3
AecBase70|Product Desc: Autodesk Architectural Desktop 2007 |Company: Autodesk,Inc. |WEB Address: www.autodesk.com
 90
      129
 91
        0
280
     0
281
     0
  0
CLASS
  1
ACDBSECTIONVIEWSTYLE
  2
AcDbSectionViewStyle
  3
ObjectDBX Classes
 90
     1025
 91
        1
280
     0
281
     0
  0
CLASS
  1
ACDBDETAILVIEWSTYLE
  2
AcDbDetailViewStyle
  3
ObjectDBX Classes
 90
     1025
 91
        1
280
     0
281
     0
  0
CLASS
  1
AEC_DISP_REP_ANCHOR_TAG_TO_ENT
  2
AecDbDispRepAnchorTagToEnt
  3
AecBase70|Product Desc: Autodesk Architectural Desktop 2007 |Company: Autodesk,Inc. |WEB Address: www.autodesk.com
 90
      129
 91
        1
280
     0
281
     0
  0
CLASS
  1
AEC_DISP_PROPS_ENT
  2
AecDbDispPropsEnt
  3
AecBase70|Product Desc: Autodesk Architectural Desktop 2007 |Company: Autodesk,Inc. |WEB Address: www.autodesk.com
 90
      129
 91
        7
280
     0
281
     0
  0
CLASS
  1
AEC_DISP_REP_2D_SECTION
  2
AecDbDispRep2dSection
  3
AecBase70|Product Desc: Autodesk Architectural Desktop 2007 |Company: Autodesk,Inc. |WEB Address: www.autodesk.com
 90
      129
 91
        1
280
     0
281
     0
  0
CLASS
  1
AEC_VARS_DWG_SETUP
  2
AecDbVarsDwgSetup
  3
AecBase70|Product Desc: Autodesk Architectural Desktop 2007 |Company: Autodesk,Inc. |WEB Address: www.autodesk.com
 90
      129
 91
        1
280
     0
281
     0
  0
CLASS
  1
AEC_DISP_PROPS_2D_SECTION
  2
AecDbDispProps2dSection
  3
AecBase70|Product Desc: Autodesk Architectural Desktop 2007 |Company: Autodesk,Inc. |WEB Address: www.autodesk.com
 90
      129
 91
        1
280
     0
281
     0
  0
CLASS
  1
AEC_DISP_REP_ANCHOR
  2
AecDbDispRepAnchor
  3
AecBase70|Product Desc: Autodesk Architectural Desktop 2007 |Company: Autodesk,Inc. |WEB Address: www.autodesk.com
 90
      129
 91
        1
280
     0
281
     0
  0
CLASS
  1
AEC_DISP_REP_ANCHOR_ENT_TO_NODE
  2
AecDbDispRepAnchorEntToNode
  3
AecBase70|Product Desc: Autodesk Architectural Desktop 2007 |Company: Autodesk,Inc. |WEB Address: www.autodesk.com
 90
      129
 91
        1
280
     0
281
     0
  0
CLASS
  1
AEC_DISP_REP_ANCHOR_EXT_TAG_TO_ENT
  2
AecDbDispRepAnchorExtendedTagToEnt
  3
AecBase70|Product Desc: Autodesk Architectural Desktop 2007 |Company: Autodesk,Inc. |WEB Address: www.autodesk.com
 90
      129
 91
        1
280
     0
281
     0
  0
CLASS
  1
AEC_DISP_REP_CLIP_VOLUME_MODEL
  2
AecDbDispRepClipVolModel
  3
AecBase70|Product Desc: Autodesk Architectural Desktop 2007 |Company: Autodesk,Inc. |WEB Address: www.autodesk.com
 90
      129
 91
        1
280
     0
281
     0
  0
CLASS
  1
AEC_DISP_PROPS_CLIP_VOLUME
  2
AecDbDispPropsClipVol
  3
AecBase70|Product Desc: Autodesk Architectural Desktop 2007 |Company: Autodesk,Inc. |WEB Address: www.autodesk.com
 90
      129
 91
       12
280
     0
281
     0
  0
CLASS
  1
AEC_DISP_REP_LAYOUT_GRID2D
  2
AecDbDispRepLayoutGrid2d
  3
AecBase70|Product Desc: Autodesk Architectural Desktop 2007 |Company: Autodesk,Inc. |WEB Address: www.autodesk.com
 90
      129
 91
        1
280
     0
281
     0
  0
CLASS
  1
AEC_DISP_PROPS_LAYOUT_GRID2D
  2
AecDbDispPropsLayoutGrid2d
  3
AecBase70|Product Desc: Autodesk Architectural Desktop 2007 |Company: Autodesk,Inc. |WEB Address: www.autodesk.com
 90
      129
 91
       11
280
     0
281
     0
  0
CLASS
  1
AEC_DISP_REP_EDITINPLACEPROFILE
  2
AecDbDispRepEditInPlaceProfile
  3
AecBase70|Product Desc: Autodesk Architectural Desktop 2007 |Company: Autodesk,Inc. |WEB Address: www.autodesk.com
 90
      129
 91
        1
280
     0
281
     0
  0
CLASS
  1
AEC_DISP_PROPS_EDITINPLACEPROFILE_MODEL
  2
AecDbDispPropsEditInPlaceProfile
  3
AecBase70|Product Desc: Autodesk Architectural Desktop 2007 |Company: Autodesk,Inc. |WEB Address: www.autodesk.com
 90
      129
 91
        1
280
     0
281
     0
  0
CLASS
  1
AEC_DISP_REP_CLIP_VOLUME_PLAN
  2
AecDbDispRepClipVolPlan
  3
AecBase70|Product Desc: Autodesk Architectural Desktop 2007 |Company: Autodesk,Inc. |WEB Address: www.autodesk.com
 90
      129
 91
        1
280
     0
281
     0
  0
CLASS
  1
AEC_DISP_REP_ENT_REF
  2
AecDbDispRepEntRef
  3
AecBase70|Product Desc: Autodesk Architectural Desktop 2007 |Company: Autodesk,Inc. |WEB Address: www.autodesk.com
 90
      129
 91
        1
280
     0
281
     0
  0
CLASS
  1
AEC_DISP_PROPS_ENT_REF
  2
AecDbDispPropsEntRef
  3
AecBase70|Product Desc: Autodesk Architectural Desktop 2007 |Company: Autodesk,Inc. |WEB Address: www.autodesk.com
 90
      129
 91
        1
280
     0
281
     0
  0
CLASS
  1
AEC_DISP_REP_LAYOUT_CURVE
  2
AecDbDispRepLayoutCurve
  3
AecBase70|Product Desc: Autodesk Architectural Desktop 2007 |Company: Autodesk,Inc. |WEB Address: www.autodesk.com
 90
      129
 91
        1
280
     0
281
     0
  0
CLASS
  1
AEC_DISP_PROPS_LAYOUT_CURVE
  2
AecDbDispPropsLayoutCurve
  3
AecBase70|Product Desc: Autodesk Architectural Desktop 2007 |Company: Autodesk,Inc. |WEB Address: www.autodesk.com
 90
      129
 91
        1
280
     0
281
     0
  0
CLASS
  1
AEC_DISP_REP_CLIP_VOLUME_RESULT_SUBDIV
  2
AecDbDispRepClipVolResSubDiv
  3
AecBase70|Product Desc: Autodesk Architectural Desktop 2007 |Company: Autodesk,Inc. |WEB Address: www.autodesk.com
 90
      129
 91
        1
280
     0
281
     0
  0
CLASS
  1
AEC_DISP_PROPS_CLIP_VOLUME_RESULT
  2
AecDbDispPropsClipVolResSubDiv
  3
AecBase70|Product Desc: Autodesk Architectural Desktop 2007 |Company: Autodesk,Inc. |WEB Address: www.autodesk.com
 90
      129
 91
        2
280
     0
281
     0
  0
CLASS
  1
AEC_DISP_REP_LAYOUT_GRID3D
  2
AecDbDispRepLayoutGrid3d
  3
AecBase70|Product Desc: Autodesk Architectural Desktop 2007 |Company: Autodesk,Inc. |WEB Address: www.autodesk.com
 90
      129
 91
        1
280
     0
281
     0
  0
CLASS
  1
AEC_DISP_PROPS_LAYOUT_GRID3D
  2
AecDbDispPropsLayoutGrid3d
  3
AecBase70|Product Desc: Autodesk Architectural Desktop 2007 |Company: Autodesk,Inc. |WEB Address: www.autodesk.com
 90
      129
 91
        1
280
     0
281
     0
  0
CLASS
  1
AEC_DISP_REP_MVBLOCK_REF_MODEL
  2
AecDbDispRepMvBlockRefModel
  3
AecBase70|Product Desc: Autodesk Architectural Desktop 2007 |Company: Autodesk,Inc. |WEB Address: www.autodesk.com
 90
      129
 91
        1
280
     0
281
     0
  0
CLASS
  1
AEC_DISP_REP_MASKBLOCK_REF
  2
AecDbDispRepMaskBlockRef
  3
AecBase70|Product Desc: Autodesk Architectural Desktop 2007 |Company: Autodesk,Inc. |WEB Address: www.autodesk.com
 90
      129
 91
        1
280
     0
281
     0
  0
CLASS
  1
AEC_DISP_PROPS_MASKBLOCK
  2
AecDbDispPropsMaskBlock
  3
AecBase70|Product Desc: Autodesk Architectural Desktop 2007 |Company: Autodesk,Inc. |WEB Address: www.autodesk.com
 90
      129
 91
        2
280
     0
281
     0
  0
CLASS
  1
AEC_DISP_REP_CLIP_VOLUME_RESULT
  2
AecDbDispRepClipVolResult
  3
AecBase70|Product Desc: Autodesk Architectural Desktop 2007 |Company: Autodesk,Inc. |WEB Address: www.autodesk.com
 90
      129
 91
        1
280
     0
281
     0
  0
CLASS
  1
AEC_DISP_REP_MVBLOCK_REF
  2
AecDbDispRepMvBlockRef
  3
AecBase70|Product Desc: Autodesk Architectural Desktop 2007 |Company: Autodesk,Inc. |WEB Address: www.autodesk.com
 90
      129
 91
        2
280
     0
281
     0
  0
CLASS
  1
AEC_DISP_REP_POLYGON_MODEL
  2
AecDbDispRepPolygonModel
  3
AecBase70|Product Desc: Autodesk Architectural Desktop 2007 |Company: Autodesk,Inc. |WEB Address: www.autodesk.com
 90
      129
 91
        1
280
     0
281
     0
  0
CLASS
  1
AEC_DISP_PROPS_POLYGON_MODEL
  2
AecDbDispPropsPolygonModel
  3
AecBase70|Product Desc: Autodesk Architectural Desktop 2007 |Company: Autodesk,Inc. |WEB Address: www.autodesk.com
 90
      129
 91
        1
280
     0
281
     0
  0
CLASS
  1
AEC_DISP_REP_POLYGON_TRUECOLOUR
  2
AecDbDispRepPolygonTrueColour
  3
AecBase70|Product Desc: Autodesk Architectural Desktop 2007 |Company: Autodesk,Inc. |WEB Address: www.autodesk.com
 90
      129
 91
        1
280
     0
281
     0
  0
CLASS
  1
AEC_DISP_PROPS_POLYGON_TRUECOLOUR
  2
AecDbDispPropsPolygonTrueColour
  3
AecBase70|Product Desc: Autodesk Architectural Desktop 2007 |Company: Autodesk,Inc. |WEB Address: www.autodesk.com
 90
      129
 91
        1
280
     0
281
     0
  0
CLASS
  1
AEC_DISP_REP_MATERIAL
  2
AecDbDispRepMaterial
  3
AecBase70|Product Desc: Autodesk Architectural Desktop 2007 |Company: Autodesk,Inc. |WEB Address: www.autodesk.com
 90
      129
 91
        2
280
     0
281
     0
  0
CLASS
  1
AEC_DISP_PROPS_MATERIAL
  2
AecDbDispPropsMaterial
  3
AecBase70|Product Desc: Autodesk Architectural Desktop 2007 |Company: Autodesk,Inc. |WEB Address: www.autodesk.com
 90
      129
 91
        2
280
     0
281
     0
  0
CLASS
  1
AEC_DISP_REP_DISPLAYTHEME
  2
AecDbDispRepDisplayTheme
  3
AecBase70|Product Desc: Autodesk Architectural Desktop 2007 |Company: Autodesk,Inc. |WEB Address: www.autodesk.com
 90
      129
 91
        1
280
     0
281
     0
  0
CLASS
  1
AEC_DISP_PROPS_DISPLAYTHEME
  2
AecDbDispPropsDisplayTheme
  3
AecBase70|Product Desc: Autodesk Architectural Desktop 2007 |Company: Autodesk,Inc. |WEB Address: www.autodesk.com
 90
      129
 91
        1
280
     0
281
     0
  0
CLASS
  1
AEC_DISP_REP_SLICE
  2
AecDbDispRepSlice
  3
AecBase70|Product Desc: Autodesk Architectural Desktop 2007 |Company: Autodesk,Inc. |WEB Address: www.autodesk.com
 90
      129
 91
        1
280
     0
281
     0
  0
CLASS
  1
AEC_DISP_PROPS_SLICE
  2
AecDbDispPropsSlice
  3
AecBase70|Product Desc: Autodesk Architectural Desktop 2007 |Company: Autodesk,Inc. |WEB Address: www.autodesk.com
 90
      129
 91
        1
280
     0
281
     0
  0
CLASS
  1
AEC_DISP_REP_MASS_ELEM_SCHEM
  2
AecDbDispRepMassElemSchem
  3
AecBaseEx70|Product Desc: Autodesk Architectural Desktop 2007 |Company: Autodesk,Inc. |WEB Address: www.autodesk.com
 90
      129
 91
        1
280
     0
281
     0
  0
CLASS
  1
AEC_DISP_PROPS_MASS_ELEM_MODEL
  2
AecDbDispPropsMassElem
  3
AecBaseEx70|Product Desc: Autodesk Architectural Desktop 2007 |Company: Autodesk,Inc. |WEB Address: www.autodesk.com
 90
      129
 91
        3
280
     0
281
     0
  0
CLASS
  1
AEC_DISP_REP_MASS_GROUP_PLAN
  2
AecDbDispRepMassGroupPlan
  3
AecBaseEx70|Product Desc: Autodesk Architectural Desktop 2007 |Company: Autodesk,Inc. |WEB Address: www.autodesk.com
 90
      129
 91
        1
280
     0
281
     0
  0
CLASS
  1
AEC_DISP_PROPS_MASS_GROUP
  2
AecDbDispPropsMassGroup
  3
AecBaseEx70|Product Desc: Autodesk Architectural Desktop 2007 |Company: Autodesk,Inc. |WEB Address: www.autodesk.com
 90
      129
 91
        3
280
     0
281
     0
  0
CLASS
  1
AEC_DISP_REP_MASS_GROUP_MODEL
  2
AecDbDispRepMassGroupModel
  3
AecBaseEx70|Product Desc: Autodesk Architectural Desktop 2007 |Company: Autodesk,Inc. |WEB Address: www.autodesk.com
 90
      129
 91
        1
280
     0
281
     0
  0
CLASS
  1
AEC_DISP_REP_MASS_ELEM_MODEL
  2
AecDbDispRepMassElemModel
  3
AecBaseEx70|Product Desc: Autodesk Architectural Desktop 2007 |Company: Autodesk,Inc. |WEB Address: www.autodesk.com
 90
      129
 91
        1
280
     0
281
     0
  0
CLASS
  1
AEC_DISP_REP_WINDOW_ELEV
  2
AecDbDispRepWindowElev
  3
AecArchBase70|Product Desc: Autodesk Architectural Desktop 2007 |Company: Autodesk,Inc. |WEB Address: www.autodesk.com
 90
      129
 91
        1
280
     0
281
     0
  0
CLASS
  1
AEC_DISP_PROPS_WINDOW
  2
AecDbDispPropsWindow
  3
AecArchBase70|Product Desc: Autodesk Architectural Desktop 2007 |Company: Autodesk,Inc. |WEB Address: www.autodesk.com
 90
      129
 91
        4
280
     0
281
     0
  0
CLASS
  1
AEC_DISP_REP_WALL_MODEL
  2
AecDbDispRepWallModel
  3
AecArchBase70|Product Desc: Autodesk Architectural Desktop 2007 |Company: Autodesk,Inc. |WEB Address: www.autodesk.com
 90
      129
 91
        1
280
     0
281
     0
  0
CLASS
  1
AEC_DISP_PROPS_WALL_MODEL
  2
AecDbDispPropsWallModel
  3
AecArchBase70|Product Desc: Autodesk Architectural Desktop 2007 |Company: Autodesk,Inc. |WEB Address: www.autodesk.com
 90
      129
 91
        1
280
     0
281
     0
  0
CLASS
  1
AEC_DISP_REP_WINDOW_PLAN_50
  2
AecDbDispRepWindowPlan50
  3
AecArchBase70|Product Desc: Autodesk Architectural Desktop 2007 |Company: Autodesk,Inc. |WEB Address: www.autodesk.com
 90
      129
 91
        1
280
     0
281
     0
  0
CLASS
  1
AEC_DISP_PROPS_WINDOW_PLAN_50
  2
AecDbDispPropsWindowPlan50
  3
AecArchBase70|Product Desc: Autodesk Architectural Desktop 2007 |Company: Autodesk,Inc. |WEB Address: www.autodesk.com
 90
      129
 91
        1
280
     0
281
     0
  0
CLASS
  1
AEC_DISP_REP_WALL_RCP
  2
AecDbDispRepWallRcp
  3
AecArchBase70|Product Desc: Autodesk Architectural Desktop 2007 |Company: Autodesk,Inc. |WEB Address: www.autodesk.com
 90
      129
 91
        1
280
     0
281
     0
  0
CLASS
  1
AEC_DISP_PROPS_WALL_PLAN
  2
AecDbDispPropsWallPlan
  3
AecArchBase70|Product Desc: Autodesk Architectural Desktop 2007 |Company: Autodesk,Inc. |WEB Address: www.autodesk.com
 90
      129
 91
        4
280
     0
281
     0
  0
CLASS
  1
AEC_DISP_REP_WINDOW_PLAN
  2
AecDbDispRepWindowPlan
  3
AecArchBase70|Product Desc: Autodesk Architectural Desktop 2007 |Company: Autodesk,Inc. |WEB Address: www.autodesk.com
 90
      129
 91
        1
280
     0
281
     0
  0
CLASS
  1
AEC_DISP_REP_WINDOW_PLAN_100
  2
AecDbDispRepWindowPlan100
  3
AecArchBase70|Product Desc: Autodesk Architectural Desktop 2007 |Company: Autodesk,Inc. |WEB Address: www.autodesk.com
 90
      129
 91
        1
280
     0
281
     0
  0
CLASS
  1
AEC_DISP_PROPS_WINDOW_PLAN_100
  2
AecDbDispPropsWindowPlan100
  3
AecArchBase70|Product Desc: Autodesk Architectural Desktop 2007 |Company: Autodesk,Inc. |WEB Address: www.autodesk.com
 90
      129
 91
        1
280
     0
281
     0
  0
CLASS
  1
AEC_DISP_REP_WINDOW_SILL_PLAN
  2
AecDbDispRepWindowSillPlan
  3
AecArchBase70|Product Desc: Autodesk Architectural Desktop 2007 |Company: Autodesk,Inc. |WEB Address: www.autodesk.com
 90
      129
 91
        1
280
     0
281
     0
  0
CLASS
  1
AEC_DISP_PROPS_WINDOW_SILL_PLAN
  2
AecDbDispPropsWindowSillPlan
  3
AecArchBase70|Product Desc: Autodesk Architectural Desktop 2007 |Company: Autodesk,Inc. |WEB Address: www.autodesk.com
 90
      129
 91
        1
280
     0
281
     0
  0
CLASS
  1
AEC_DISP_REP_WINDOW_MODEL
  2
AecDbDispRepWindowModel
  3
AecArchBase70|Product Desc: Autodesk Architectural Desktop 2007 |Company: Autodesk,Inc. |WEB Address: www.autodesk.com
 90
      129
 91
        1
280
     0
281
     0
  0
CLASS
  1
AEC_DISP_REP_STAIR_RCP
  2
AecDbDispRepStairRcp
  3
AecArchBase70|Product Desc: Autodesk Architectural Desktop 2007 |Company: Autodesk,Inc. |WEB Address: www.autodesk.com
 90
      129
 91
        1
280
     0
281
     0
  0
CLASS
  1
AEC_DISP_PROPS_STAIR_PLAN
  2
AecDbDispPropsStairPlan
  3
AecArchBase70|Product Desc: Autodesk Architectural Desktop 2007 |Company: Autodesk,Inc. |WEB Address: www.autodesk.com
 90
      129
 91
        2
280
     0
281
     0
  0
CLASS
  1
AEC_DISP_REP_STAIR_PLAN_OVERLAPPING
  2
AecDbDispRepStairPlanOverlapping
  3
AecArchBase70|Product Desc: Autodesk Architectural Desktop 2007 |Company: Autodesk,Inc. |WEB Address: www.autodesk.com
 90
      129
 91
        1
280
     0
281
     0
  0
CLASS
  1
AEC_DISP_PROPS_STAIR_PLAN_OVERLAPPING
  2
AecDbDispPropsStairPlanOverlapping
  3
AecArchBase70|Product Desc: Autodesk Architectural Desktop 2007 |Company: Autodesk,Inc. |WEB Address: www.autodesk.com
 90
      129
 91
        1
280
     0
281
     0
  0
CLASS
  1
AEC_DISP_REP_WINDOWASSEMBLY_SILL_PLAN
  2
AecDbDispRepWindowAssemblySillPlan
  3
AecArchBase70|Product Desc: Autodesk Architectural Desktop 2007 |Company: Autodesk,Inc. |WEB Address: www.autodesk.com
 90
      129
 91
        1
280
     0
281
     0
  0
CLASS
  1
AEC_DISP_PROPS_WINDOW_ASSEMBLY_SILL_PLAN
  2
AecDbDispPropsWindowAssemblySillPlan
  3
AecArchBase70|Product Desc: Autodesk Architectural Desktop 2007 |Company: Autodesk,Inc. |WEB Address: www.autodesk.com
 90
      129
 91
        1
280
     0
281
     0
  0
CLASS
  1
AEC_DISP_REP_WALL_GRAPH
  2
AecDbDispRepWallGraph
  3
AecArchBase70|Product Desc: Autodesk Architectural Desktop 2007 |Company: Autodesk,Inc. |WEB Address: www.autodesk.com
 90
      129
 91
        1
280
     0
281
     0
  0
CLASS
  1
AEC_DISP_PROPS_WALL_GRAPH
  2
AecDbDispPropsWallGraph
  3
AecArchBase70|Product Desc: Autodesk Architectural Desktop 2007 |Company: Autodesk,Inc. |WEB Address: www.autodesk.com
 90
      129
 91
        1
280
     0
281
     0
  0
CLASS
  1
AEC_DISP_REP_WALL_SCHEM
  2
AecDbDispRepWallSchem
  3
AecArchBase70|Product Desc: Autodesk Architectural Desktop 2007 |Company: Autodesk,Inc. |WEB Address: www.autodesk.com
 90
      129
 91
        1
280
     0
281
     0
  0
CLASS
  1
AEC_DISP_PROPS_WALL_SCHEM
  2
AecDbDispPropsWallSchem
  3
AecArchBase70|Product Desc: Autodesk Architectural Desktop 2007 |Company: Autodesk,Inc. |WEB Address: www.autodesk.com
 90
      129
 91
        1
280
     0
281
     0
  0
CLASS
  1
AEC_DISP_REP_WINDOW_ASSEMBLY_MODEL
  2
AecDbDispRepWindowAssemblyModel
  3
AecArchBase70|Product Desc: Autodesk Architectural Desktop 2007 |Company: Autodesk,Inc. |WEB Address: www.autodesk.com
 90
      129
 91
        1
280
     0
281
     0
  0
CLASS
  1
AEC_DISP_PROPS_GRID_ASSEMBLY_MODEL
  2
AecDbDispPropsGridAssemblyModel
  3
AecArchBase70|Product Desc: Autodesk Architectural Desktop 2007 |Company: Autodesk,Inc. |WEB Address: www.autodesk.com
 90
      129
 91
        3
280
     0
281
     0
  0
CLASS
  1
AEC_DISP_REP_WINDOW_RCP
  2
AecDbDispRepWindowRcp
  3
AecArchBase70|Product Desc: Autodesk Architectural Desktop 2007 |Company: Autodesk,Inc. |WEB Address: www.autodesk.com
 90
      129
 91
        1
280
     0
281
     0
  0
CLASS
  1
AEC_DISP_REP_WINDOW_NOMINAL
  2
AecDbDispRepWindowNominal
  3
AecArchBase70|Product Desc: Autodesk Architectural Desktop 2007 |Company: Autodesk,Inc. |WEB Address: www.autodesk.com
 90
      129
 91
        1
280
     0
281
     0
  0
CLASS
  1
AEC_DISP_PROPS_WINDOW_NOMINAL
  2
AecDbDispPropsWindowNominal
  3
AecArchBase70|Product Desc: Autodesk Architectural Desktop 2007 |Company: Autodesk,Inc. |WEB Address: www.autodesk.com
 90
      129
 91
        1
280
     0
281
     0
  0
CLASS
  1
AEC_DISP_REP_BDG_SECTIONLINE_PLAN
  2
AecDbDispRepBdgElevLinePlan
  3
AecArchBase70|Product Desc: Autodesk Architectural Desktop 2007 |Company: Autodesk,Inc. |WEB Address: www.autodesk.com
 90
      129
 91
        1
280
     0
281
     0
  0
CLASS
  1
AEC_AECDBDISPREPCEILINGGRIDPLAN100
  2
AecDbDispRepCeilingGridPlan100
  3
AecArchBase70|Product Desc: Autodesk Architectural Desktop 2007 |Company: Autodesk,Inc. |WEB Address: www.autodesk.com
 90
      129
 91
        1
280
     0
281
     0
  0
CLASS
  1
AEC_AECDBDISPREPBDGELEVLINEPLAN100
  2
AecDbDispRepBdgElevLinePlan100
  3
AecArchBase70|Product Desc: Autodesk Architectural Desktop 2007 |Company: Autodesk,Inc. |WEB Address: www.autodesk.com
 90
      129
 91
        1
280
     0
281
     0
  0
CLASS
  1
AEC_AECDBDISPREPBDGSECTIONLINEPLAN100
  2
AecDbDispRepBdgSectionLinePlan100
  3
AecArchBase70|Product Desc: Autodesk Architectural Desktop 2007 |Company: Autodesk,Inc. |WEB Address: www.autodesk.com
 90
      129
 91
        1
280
     0
281
     0
  0
CLASS
  1
AEC_DISP_REP_CURTAIN_WALL_LAYOUT_PLAN
  2
AecDbDispRepCurtainWallLayoutPlan
  3
AecArchBase70|Product Desc: Autodesk Architectural Desktop 2007 |Company: Autodesk,Inc. |WEB Address: www.autodesk.com
 90
      129
 91
        1
280
     0
281
     0
  0
CLASS
  1
AEC_DISP_PROPS_GRID_ASSEMBLY_PLAN
  2
AecDbDispPropsGridAssemblyPlan
  3
AecArchBase70|Product Desc: Autodesk Architectural Desktop 2007 |Company: Autodesk,Inc. |WEB Address: www.autodesk.com
 90
      129
 91
        9
280
     0
281
     0
  0
CLASS
  1
AEC_DISP_REP_CEILING_GRID
  2
AecDbDispRepCeilingGrid
  3
AecArchBase70|Product Desc: Autodesk Architectural Desktop 2007 |Company: Autodesk,Inc. |WEB Address: www.autodesk.com
 90
      893
 91
        1
280
     0
281
     0
  0
CLASS
  1
AEC_AECDBDISPREPCOLUMNGRIDPLAN100
  2
AecDbDispRepColumnGridPlan100
  3
AecArchBase70|Product Desc: Autodesk Architectural Desktop 2007 |Company: Autodesk,Inc. |WEB Address: www.autodesk.com
 90
      129
 91
        1
280
     0
281
     0
  0
CLASS
  1
AEC_DISP_REP_CURTAIN_WALL_UNIT_PLAN
  2
AecDbDispRepCurtainWallUnitPlan
  3
AecArchBase70|Product Desc: Autodesk Architectural Desktop 2007 |Company: Autodesk,Inc. |WEB Address: www.autodesk.com
 90
      129
 91
        1
280
     0
281
     0
  0
CLASS
  1
AEC_AECDBDISPREPCURTAINWALLUNITPLAN100
  2
AecDbDispRepCurtainWallUnitPlan100
  3
AecArchBase70|Product Desc: Autodesk Architectural Desktop 2007 |Company: Autodesk,Inc. |WEB Address: www.autodesk.com
 90
      129
 91
        1
280
     0
281
     0
  0
CLASS
  1
AEC_DISP_REP_BDG_SECTIONLINE_PLAN
  2
AecDbDispRepBdgSectionLinePlan
  3
AecArchBase70|Product Desc: Autodesk Architectural Desktop 2007 |Company: Autodesk,Inc. |WEB Address: www.autodesk.com
 90
      129
 91
        1
280
     0
281
     0
  0
CLASS
  1
AEC_DISP_REP_COLUMN_GRID
  2
AecDbDispRepColumnGrid
  3
AecArchBase70|Product Desc: Autodesk Architectural Desktop 2007 |Company: Autodesk,Inc. |WEB Address: www.autodesk.com
 90
      129
 91
        1
280
     0
281
     0
  0
CLASS
  1
AEC_AECDBDISPREPCURTAINWALLLAYOUTPLAN100
  2
AecDbDispRepCurtainWallLayoutPlan100
  3
AecArchBase70|Product Desc: Autodesk Architectural Desktop 2007 |Company: Autodesk,Inc. |WEB Address: www.autodesk.com
 90
      129
 91
        1
280
     0
281
     0
  0
CLASS
  1
AEC_AECDBDISPREPMVBLOCKREFPLAN100
  2
AecDbDispRepMvBlockRefPlan100
  3
AecArchBase70|Product Desc: Autodesk Architectural Desktop 2007 |Company: Autodesk,Inc. |WEB Address: www.autodesk.com
 90
      129
 91
        1
280
     0
281
     0
  0
CLASS
  1
AEC_DISP_REP_ROOFSLAB_PLAN
  2
AecDbDispRepRoofSlabPlan
  3
AecArchBase70|Product Desc: Autodesk Architectural Desktop 2007 |Company: Autodesk,Inc. |WEB Address: www.autodesk.com
 90
      129
 91
        1
280
     0
281
     0
  0
CLASS
  1
AEC_DISP_PROPS_ROOFSLAB_PLAN
  2
AecDbDispPropsRoofSlabPlan
  3
AecArchBase70|Product Desc: Autodesk Architectural Desktop 2007 |Company: Autodesk,Inc. |WEB Address: www.autodesk.com
 90
      129
 91
        3
280
     0
281
     0
  0
CLASS
  1
AEC_DISP_REP_ROOF_PLAN
  2
AecDbDispRepRoofPlan
  3
AecArchBase70|Product Desc: Autodesk Architectural Desktop 2007 |Company: Autodesk,Inc. |WEB Address: www.autodesk.com
 90
      129
 91
        1
280
     0
281
     0
  0
CLASS
  1
AEC_DISP_PROPS_ROOF
  2
AecDbDispPropsRoof
  3
AecArchBase70|Product Desc: Autodesk Architectural Desktop 2007 |Company: Autodesk,Inc. |WEB Address: www.autodesk.com
 90
      129
 91
        5
280
     0
281
     0
  0
CLASS
  1
AEC_AECDBDISPREPSLABPLAN100
  2
AecDbDispRepSlabPlan100
  3
AecArchBase70|Product Desc: Autodesk Architectural Desktop 2007 |Company: Autodesk,Inc. |WEB Address: www.autodesk.com
 90
      129
 91
        1
280
     0
281
     0
  0
CLASS
  1
AEC_DISP_PROPS_SLAB_PLAN
  2
AecDbDispPropsSlabPlan
  3
AecArchBase70|Product Desc: Autodesk Architectural Desktop 2007 |Company: Autodesk,Inc. |WEB Address: www.autodesk.com
 90
      129
 91
        3
280
     0
281
     0
  0
CLASS
  1
AEC_DISP_REP_SPACE_PLAN
  2
AecDbDispRepSpacePlan
  3
AecArchBase70|Product Desc: Autodesk Architectural Desktop 2007 |Company: Autodesk,Inc. |WEB Address: www.autodesk.com
 90
      129
 91
        1
280
     0
281
     0
  0
CLASS
  1
AEC_DISP_PROPS_SPACE_PLAN
  2
AecDbDispPropsSpacePlan
  3
AecArchBase70|Product Desc: Autodesk Architectural Desktop 2007 |Company: Autodesk,Inc. |WEB Address: www.autodesk.com
 90
      129
 91
        4
280
     0
281
     0
  0
CLASS
  1
AEC_AECDBDISPREPROOFSLABPLAN100
  2
AecDbDispRepRoofSlabPlan100
  3
AecArchBase70|Product Desc: Autodesk Architectural Desktop 2007 |Company: Autodesk,Inc. |WEB Address: www.autodesk.com
 90
      129
 91
        1
280
     0
281
     0
  0
CLASS
  1
AEC_AECDBDISPREPSPACEPLAN100
  2
AecDbDispRepSpacePlan100
  3
AecArchBase70|Product Desc: Autodesk Architectural Desktop 2007 |Company: Autodesk,Inc. |WEB Address: www.autodesk.com
 90
      129
 91
        1
280
     0
281
     0
  0
CLASS
  1
AEC_AECDBDISPREPWALLPLAN100
  2
AecDbDispRepWallPlan100
  3
AecArchBase70|Product Desc: Autodesk Architectural Desktop 2007 |Company: Autodesk,Inc. |WEB Address: www.autodesk.com
 90
      129
 91
        1
280
     0
281
     0
  0
CLASS
  1
AEC_DISP_REP_SLAB_PLAN
  2
AecDbDispRepSlabPlan
  3
AecArchBase70|Product Desc: Autodesk Architectural Desktop 2007 |Company: Autodesk,Inc. |WEB Address: www.autodesk.com
 90
      129
 91
        1
280
     0
281
     0
  0
CLASS
  1
AEC_DISP_REP_WALL_PLAN
  2
AecDbDispRepWallPlan
  3
AecArchBase70|Product Desc: Autodesk Architectural Desktop 2007 |Company: Autodesk,Inc. |WEB Address: www.autodesk.com
 90
      129
 91
        1
280
     0
281
     0
  0
CLASS
  1
AEC_AECDBDISPREPROOFPLAN100
  2
AecDbDispRepRoofPlan100
  3
AecArchBase70|Product Desc: Autodesk Architectural Desktop 2007 |Company: Autodesk,Inc. |WEB Address: www.autodesk.com
 90
      129
 91
        1
280
     0
281
     0
  0
CLASS
  1
AEC_AECDBDISPREPZONE100
  2
AecDbDispRepZonePlan100
  3
AecArchBase70|Product Desc: Autodesk Architectural Desktop 2007 |Company: Autodesk,Inc. |WEB Address: www.autodesk.com
 90
      129
 91
        1
280
     0
281
     0
  0
CLASS
  1
AEC_DISP_PROPS_ZONE
  2
AecDbDispPropsZone
  3
AecArchBase70|Product Desc: Autodesk Architectural Desktop 2007 |Company: Autodesk,Inc. |WEB Address: www.autodesk.com
 90
      129
 91
        3
280
     0
281
     0
  0
CLASS
  1
AEC_DISP_REP_ZONE
  2
AecDbDispRepZone
  3
AecArchBase70|Product Desc: Autodesk Architectural Desktop 2007 |Company: Autodesk,Inc. |WEB Address: www.autodesk.com
 90
      129
 91
        1
280
     0
281
     0
  0
CLASS
  1
AEC_AECDBDISPREPCURTAINWALLUNITPLAN50
  2
AecDbDispRepCurtainWallUnitPlan50
  3
AecArchBase70|Product Desc: Autodesk Architectural Desktop 2007 |Company: Autodesk,Inc. |WEB Address: www.autodesk.com
 90
      129
 91
        1
280
     0
281
     0
  0
CLASS
  1
AEC_AECDBDISPREPCOLUMNGRIDPLAN50
  2
AecDbDispRepColumnGridPlan50
  3
AecArchBase70|Product Desc: Autodesk Architectural Desktop 2007 |Company: Autodesk,Inc. |WEB Address: www.autodesk.com
 90
      129
 91
        1
280
     0
281
     0
  0
CLASS
  1
AEC_AECDBDISPREPBDGSECTIONLINEPLAN50
  2
AecDbDispRepBdgSectionLinePlan50
  3
AecArchBase70|Product Desc: Autodesk Architectural Desktop 2007 |Company: Autodesk,Inc. |WEB Address: www.autodesk.com
 90
      129
 91
        1
280
     0
281
     0
  0
CLASS
  1
AEC_AECDBDISPREPMVBLOCKREFPLAN50
  2
AecDbDispRepMvBlockRefPlan50
  3
AecArchBase70|Product Desc: Autodesk Architectural Desktop 2007 |Company: Autodesk,Inc. |WEB Address: www.autodesk.com
 90
      129
 91
        1
280
     0
281
     0
  0
CLASS
  1
AEC_DISP_REP_WINDOW_ASSEMBLY_PLAN
  2
AecDbDispRepWindowAssemblyPlan
  3
AecArchBase70|Product Desc: Autodesk Architectural Desktop 2007 |Company: Autodesk,Inc. |WEB Address: www.autodesk.com
 90
      129
 91
        1
280
     0
281
     0
  0
CLASS
  1
AEC_AECDBDISPREPWINDOWASSEMBLYPLAN100
  2
AecDbDispRepWindowAssemblyPlan100
  3
AecArchBase70|Product Desc: Autodesk Architectural Desktop 2007 |Company: Autodesk,Inc. |WEB Address: www.autodesk.com
 90
      129
 91
        1
280
     0
281
     0
  0
CLASS
  1
AEC_AECDBDISPREPCEILINGGRIDPLAN50
  2
AecDbDispRepCeilingGridPlan50
  3
AecArchBase70|Product Desc: Autodesk Architectural Desktop 2007 |Company: Autodesk,Inc. |WEB Address: www.autodesk.com
 90
      129
 91
        1
280
     0
281
     0
  0
CLASS
  1
AEC_AECDBDISPREPROOFPLAN50
  2
AecDbDispRepRoofPlan50
  3
AecArchBase70|Product Desc: Autodesk Architectural Desktop 2007 |Company: Autodesk,Inc. |WEB Address: www.autodesk.com
 90
      129
 91
        1
280
     0
281
     0
  0
CLASS
  1
AEC_AECDBDISPREPSLABPLAN50
  2
AecDbDispRepSlabPlan50
  3
AecArchBase70|Product Desc: Autodesk Architectural Desktop 2007 |Company: Autodesk,Inc. |WEB Address: www.autodesk.com
 90
      129
 91
        1
280
     0
281
     0
  0
CLASS
  1
AEC_AECDBDISPREPBDGELEVLINEPLAN50
  2
AecDbDispRepBdgElevLinePlan50
  3
AecArchBase70|Product Desc: Autodesk Architectural Desktop 2007 |Company: Autodesk,Inc. |WEB Address: www.autodesk.com
 90
      129
 91
        1
280
     0
281
     0
  0
CLASS
  1
AEC_AECDBDISPREPCURTAINWALLLAYOUTPLAN50
  2
AecDbDispRepCurtainWallLayoutPlan50
  3
AecArchBase70|Product Desc: Autodesk Architectural Desktop 2007 |Company: Autodesk,Inc. |WEB Address: www.autodesk.com
 90
      129
 91
        1
280
     0
281
     0
  0
CLASS
  1
AEC_AECDBDISPREPROOFSLABPLAN50
  2
AecDbDispRepRoofSlabPlan50
  3
AecArchBase70|Product Desc: Autodesk Architectural Desktop 2007 |Company: Autodesk,Inc. |WEB Address: www.autodesk.com
 90
      129
 91
        1
280
     0
281
     0
  0
CLASS
  1
AEC_AECDBDISPREPWALLPLAN50
  2
AecDbDispRepWallPlan50
  3
AecArchBase70|Product Desc: Autodesk Architectural Desktop 2007 |Company: Autodesk,Inc. |WEB Address: www.autodesk.com
 90
      129
 91
        1
280
     0
281
     0
  0
CLASS
  1
AEC_AECDBDISPREPSPACEPLAN50
  2
AecDbDispRepSpacePlan50
  3
AecArchBase70|Product Desc: Autodesk Architectural Desktop 2007 |Company: Autodesk,Inc. |WEB Address: www.autodesk.com
 90
      129
 91
        1
280
     0
281
     0
  0
CLASS
  1
AEC_AECDBDISPREPZONE50
  2
AecDbDispRepZonePlan50
  3
AecArchBase70|Product Desc: Autodesk Architectural Desktop 2007 |Company: Autodesk,Inc. |WEB Address: www.autodesk.com
 90
      129
 91
        1
280
     0
281
     0
  0
CLASS
  1
AEC_AECDBDISPREPWINDOWASSEMBLYPLAN50
  2
AecDbDispRepWindowAssemblyPlan50
  3
AecArchBase70|Product Desc: Autodesk Architectural Desktop 2007 |Company: Autodesk,Inc. |WEB Address: www.autodesk.com
 90
      129
 91
        1
280
     0
281
     0
  0
CLASS
  1
AEC_DISP_REP_ANCHOR_BUB_TO_GRID
  2
AecDbDispRepAnchorBubToGrid
  3
AecArchBase70|Product Desc: Autodesk Architectural Desktop 2007 |Company: Autodesk,Inc. |WEB Address: www.autodesk.com
 90
      129
 91
        1
280
     0
281
     0
  0
CLASS
  1
AEC_DISP_REP_CEILING_GRID_RCP
  2
AecDbDispRepCeilingGridRcp
  3
AecArchBase70|Product Desc: Autodesk Architectural Desktop 2007 |Company: Autodesk,Inc. |WEB Address: www.autodesk.com
 90
      129
 91
        1
280
     0
281
     0
  0
CLASS
  1
AEC_DISP_REP_ANCHOR_BUB_TO_GRID_RCP
  2
AecDbDispRepAnchorBubToGridRcp
  3
AecArchBase70|Product Desc: Autodesk Architectural Desktop 2007 |Company: Autodesk,Inc. |WEB Address: www.autodesk.com
 90
      129
 91
        1
280
     0
281
     0
  0
CLASS
  1
AEC_DISP_REP_CURTAIN_WALL_UNIT_MODEL
  2
AecDbDispRepCurtainWallUnitModel
  3
AecArchBase70|Product Desc: Autodesk Architectural Desktop 2007 |Company: Autodesk,Inc. |WEB Address: www.autodesk.com
 90
      129
 91
        1
280
     0
281
     0
  0
CLASS
  1
AEC_DB_DISP_REP_DIM_GROUP_PLAN100
  2
AecDbDispRepDimGroupPlan100
  3
AecArchBase70|Product Desc: Autodesk Architectural Desktop 2007 |Company: Autodesk,Inc. |WEB Address: www.autodesk.com
 90
      129
 91
        1
280
     0
281
     0
  0
CLASS
  1
AEC_DISP_PROPS_DIM
  2
AecDbDispPropsDimGroup
  3
AecArchBase70|Product Desc: Autodesk Architectural Desktop 2007 |Company: Autodesk,Inc. |WEB Address: www.autodesk.com
 90
      129
 91
        3
280
     0
281
     0
  0
CLASS
  1
AEC_DISP_REP_BDG_ELEVLINE_RCP
  2
AecDbDispRepBdgElevLineRcp
  3
AecArchBase70|Product Desc: Autodesk Architectural Desktop 2007 |Company: Autodesk,Inc. |WEB Address: www.autodesk.com
 90
      129
 91
        1
280
     0
281
     0
  0
CLASS
  1
AEC_DISP_REP_BDG_SECTION_MODEL
  2
AecDbDispRepBdgSectionModel
  3
AecArchBase70|Product Desc: Autodesk Architectural Desktop 2007 |Company: Autodesk,Inc. |WEB Address: www.autodesk.com
 90
      129
 91
        1
280
     0
281
     0
  0
CLASS
  1
AEC_DISP_REP_BDG_SECTION_SUBDIV
  2
AecDbDispRepBdgSectionSubDiv
  3
AecArchBase70|Product Desc: Autodesk Architectural Desktop 2007 |Company: Autodesk,Inc. |WEB Address: www.autodesk.com
 90
      129
 91
        1
280
     0
281
     0
  0
CLASS
  1
AEC_DISP_REP_CEILING_GRID_MODEL
  2
AecDbDispRepCeilingGridModel
  3
AecArchBase70|Product Desc: Autodesk Architectural Desktop 2007 |Company: Autodesk,Inc. |WEB Address: www.autodesk.com
 90
      129
 91
        1
280
     0
281
     0
  0
CLASS
  1
AEC_DISP_REP_BDG_SECTIONLINE_MODEL
  2
AecDbDispRepBdgSectionLineModel
  3
AecArchBase70|Product Desc: Autodesk Architectural Desktop 2007 |Company: Autodesk,Inc. |WEB Address: www.autodesk.com
 90
      129
 91
        1
280
     0
281
     0
  0
CLASS
  1
AEC_DISP_REP_COLUMN_GRID_MODEL
  2
AecDbDispRepColumnGridModel
  3
AecArchBase70|Product Desc: Autodesk Architectural Desktop 2007 |Company: Autodesk,Inc. |WEB Address: www.autodesk.com
 90
      129
 91
        1
280
     0
281
     0
  0
CLASS
  1
AEC_DISP_REP_COLUMN_GRID_RCP
  2
AecDbDispRepColumnGridRcp
  3
AecArchBase70|Product Desc: Autodesk Architectural Desktop 2007 |Company: Autodesk,Inc. |WEB Address: www.autodesk.com
 90
      129
 91
        1
280
     0
281
     0
  0
CLASS
  1
AEC_DISP_REP_BDG_SECTIONLINE_RCP
  2
AecDbDispRepBdgSectionLineRcp
  3
AecArchBase70|Product Desc: Autodesk Architectural Desktop 2007 |Company: Autodesk,Inc. |WEB Address: www.autodesk.com
 90
      129
 91
        1
280
     0
281
     0
  0
CLASS
  1
AEC_DISP_REP_BDG_ELEVLINE_MODEL
  2
AecDbDispRepBdgElevLineModel
  3
AecArchBase70|Product Desc: Autodesk Architectural Desktop 2007 |Company: Autodesk,Inc. |WEB Address: www.autodesk.com
 90
      129
 91
        1
280
     0
281
     0
  0
CLASS
  1
AEC_DISP_REP_CURTAIN_WALL_LAYOUT_MODEL
  2
AecDbDispRepCurtainWallLayoutModel
  3
AecArchBase70|Product Desc: Autodesk Architectural Desktop 2007 |Company: Autodesk,Inc. |WEB Address: www.autodesk.com
 90
      129
 91
        1
280
     0
281
     0
  0
CLASS
  1
AEC_DISP_REP_ANCHOR_BUB_TO_GRID_MODEL
  2
AecDbDispRepAnchorBubToGridMdl
  3
AecArchBase70|Product Desc: Autodesk Architectural Desktop 2007 |Company: Autodesk,Inc. |WEB Address: www.autodesk.com
 90
      129
 91
        1
280
     0
281
     0
  0
CLASS
  1
AEC_DISP_REP_DOOR_THRESHOLD_SYMBOL_PLAN
  2
AecDbDispRepDoorThresholdSymbolPlan
  3
AecArchBase70|Product Desc: Autodesk Architectural Desktop 2007 |Company: Autodesk,Inc. |WEB Address: www.autodesk.com
 90
      129
 91
        1
280
     0
281
     0
  0
CLASS
  1
AEC_DISP_PROPS_DOOR_THRESHOLD_SYMBOL_PLAN
  2
AecDbDispPropsDoorThresholdSymbolPlan
  3
AecArchBase70|Product Desc: Autodesk Architectural Desktop 2007 |Company: Autodesk,Inc. |WEB Address: www.autodesk.com
 90
      129
 91
        1
280
     0
281
     0
  0
CLASS
  1
AEC_DISP_REP_DOOR_PLAN_HEKTO
  2
AecDbDispRepDoorPlanHekto
  3
AecArchBase70|Product Desc: Autodesk Architectural Desktop 2007 |Company: Autodesk,Inc. |WEB Address: www.autodesk.com
 90
      129
 91
        1
280
     0
281
     0
  0
CLASS
  1
AEC_DISP_PROPS_DOOR_PLAN_100
  2
AecDbDispPropsDoorPlan100
  3
AecArchBase70|Product Desc: Autodesk Architectural Desktop 2007 |Company: Autodesk,Inc. |WEB Address: www.autodesk.com
 90
      129
 91
        1
280
     0
281
     0
  0
CLASS
  1
AEC_DISPREPAECDBDISPREPMASSGROUPPLAN50
  2
AecDbDispRepMassGroupPlan50
  3
AecArchBase70|Product Desc: Autodesk Architectural Desktop 2007 |Company: Autodesk,Inc. |WEB Address: www.autodesk.com
 90
      129
 91
        1
280
     0
281
     0
  0
CLASS
  1
AEC_DISPROPSMASSGROUPPLANCOMMON
  2
AecDbDispPropsMassGroupPlanCommon
  3
AecArchBase70|Product Desc: Autodesk Architectural Desktop 2007 |Company: Autodesk,Inc. |WEB Address: www.autodesk.com
 90
      129
 91
        2
280
     0
281
     0
  0
CLASS
  1
AEC_DISP_REP_MASS_GROUP_RCP
  2
AecDbDispRepMassGroupRcp
  3
AecArchBase70|Product Desc: Autodesk Architectural Desktop 2007 |Company: Autodesk,Inc. |WEB Address: www.autodesk.com
 90
      129
 91
        1
280
     0
281
     0
  0
CLASS
  1
AEC_DB_DISP_REP_DIM_GROUP_PLAN50
  2
AecDbDispRepDimGroupPlan50
  3
AecArchBase70|Product Desc: Autodesk Architectural Desktop 2007 |Company: Autodesk,Inc. |WEB Address: www.autodesk.com
 90
      129
 91
        1
280
     0
281
     0
  0
CLASS
  1
AEC_DISP_REP_DOOR_MODEL
  2
AecDbDispRepDoorModel
  3
AecArchBase70|Product Desc: Autodesk Architectural Desktop 2007 |Company: Autodesk,Inc. |WEB Address: www.autodesk.com
 90
      129
 91
        1
280
     0
281
     0
  0
CLASS
  1
AEC_DISP_PROPS_DOOR
  2
AecDbDispPropsDoor
  3
AecArchBase70|Product Desc: Autodesk Architectural Desktop 2007 |Company: Autodesk,Inc. |WEB Address: www.autodesk.com
 90
      129
 91
        4
280
     0
281
     0
  0
CLASS
  1
AEC_DISP_REP_DOOR_PLAN_50
  2
AecDbDispRepDoorPlan50
  3
AecArchBase70|Product Desc: Autodesk Architectural Desktop 2007 |Company: Autodesk,Inc. |WEB Address: www.autodesk.com
 90
      129
 91
        1
280
     0
281
     0
  0
CLASS
  1
AEC_DISP_PROPS_DOOR_PLAN_50
  2
AecDbDispPropsDoorPlan50
  3
AecArchBase70|Product Desc: Autodesk Architectural Desktop 2007 |Company: Autodesk,Inc. |WEB Address: www.autodesk.com
 90
      129
 91
        1
280
     0
281
     0
  0
CLASS
  1
AEC_DISP_REP_DOOR_THRESHOLD_PLAN
  2
AecDbDispRepDoorThresholdPlan
  3
AecArchBase70|Product Desc: Autodesk Architectural Desktop 2007 |Company: Autodesk,Inc. |WEB Address: www.autodesk.com
 90
      129
 91
        1
280
     0
281
     0
  0
CLASS
  1
AEC_DISP_PROPS_DOOR_THRESHOLD_PLAN
  2
AecDbDispPropsDoorThresholdPlan
  3
AecArchBase70|Product Desc: Autodesk Architectural Desktop 2007 |Company: Autodesk,Inc. |WEB Address: www.autodesk.com
 90
      129
 91
        1
280
     0
281
     0
  0
CLASS
  1
AEC_DISP_REP_MASKBLOCK_REF_RCP
  2
AecDbDispRepMaskBlockRefRcp
  3
AecArchBase70|Product Desc: Autodesk Architectural Desktop 2007 |Company: Autodesk,Inc. |WEB Address: www.autodesk.com
 90
      129
 91
        1
280
     0
281
     0
  0
CLASS
  1
AEC_DISP_REP_DOOR_ELEV
  2
AecDbDispRepDoorElev
  3
AecArchBase70|Product Desc: Autodesk Architectural Desktop 2007 |Company: Autodesk,Inc. |WEB Address: www.autodesk.com
 90
      129
 91
        1
280
     0
281
     0
  0
CLASS
  1
AEC_DISPREPAECDBDISPREPMASSELEMPLAN50
  2
AecDbDispRepMassElemPlan50
  3
AecArchBase70|Product Desc: Autodesk Architectural Desktop 2007 |Company: Autodesk,Inc. |WEB Address: www.autodesk.com
 90
      129
 91
        1
280
     0
281
     0
  0
CLASS
  1
AEC_DISPROPSMASSELEMPLANCOMMON
  2
AecDbDispPropsMassElemPlanCommon
  3
AecArchBase70|Product Desc: Autodesk Architectural Desktop 2007 |Company: Autodesk,Inc. |WEB Address: www.autodesk.com
 90
      129
 91
        2
280
     0
281
     0
  0
CLASS
  1
AEC_DISP_REP_DOOR_NOMINAL
  2
AecDbDispRepDoorNominal
  3
AecArchBase70|Product Desc: Autodesk Architectural Desktop 2007 |Company: Autodesk,Inc. |WEB Address: www.autodesk.com
 90
      129
 91
        1
280
     0
281
     0
  0
CLASS
  1
AEC_DISP_PROPS_DOOR_NOMINAL
  2
AecDbDispPropsDoorNominal
  3
AecArchBase70|Product Desc: Autodesk Architectural Desktop 2007 |Company: Autodesk,Inc. |WEB Address: www.autodesk.com
 90
      129
 91
        1
280
     0
281
     0
  0
CLASS
  1
AEC_DISPREPAECDBDISPREPMASSELEMPLAN100
  2
AecDbDispRepMassElemPlan100
  3
AecArchBase70|Product Desc: Autodesk Architectural Desktop 2007 |Company: Autodesk,Inc. |WEB Address: www.autodesk.com
 90
      129
 91
        1
280
     0
281
     0
  0
CLASS
  1
AEC_DISP_REP_MASS_ELEM_RCP
  2
AecDbDispRepMassElemRcp
  3
AecArchBase70|Product Desc: Autodesk Architectural Desktop 2007 |Company: Autodesk,Inc. |WEB Address: www.autodesk.com
 90
      129
 91
        1
280
     0
281
     0
  0
CLASS
  1
AEC_DISP_REP_DOOR_PLAN
  2
AecDbDispRepDoorPlan
  3
AecArchBase70|Product Desc: Autodesk Architectural Desktop 2007 |Company: Autodesk,Inc. |WEB Address: www.autodesk.com
 90
      129
 91
        1
280
     0
281
     0
  0
CLASS
  1
AEC_DISP_REP_DOOR_RCP
  2
AecDbDispRepDoorRcp
  3
AecArchBase70|Product Desc: Autodesk Architectural Desktop 2007 |Company: Autodesk,Inc. |WEB Address: www.autodesk.com
 90
      129
 91
        1
280
     0
281
     0
  0
CLASS
  1
AEC_DISPREPAECDBDISPREPMASSGROUPPLAN100
  2
AecDbDispRepMassGroupPlan100
  3
AecArchBase70|Product Desc: Autodesk Architectural Desktop 2007 |Company: Autodesk,Inc. |WEB Address: www.autodesk.com
 90
      129
 91
        1
280
     0
281
     0
  0
CLASS
  1
AEC_DB_DISP_REP_DIM_GROUP_PLAN
  2
AecDbDispRepDimGroupPlan
  3
AecArchBase70|Product Desc: Autodesk Architectural Desktop 2007 |Company: Autodesk,Inc. |WEB Address: www.autodesk.com
 90
      129
 91
        1
280
     0
281
     0
  0
CLASS
  1
AEC_DISP_REP_OPENING_MODEL
  2
AecDbDispRepOpeningModel
  3
AecArchBase70|Product Desc: Autodesk Architectural Desktop 2007 |Company: Autodesk,Inc. |WEB Address: www.autodesk.com
 90
      129
 91
        1
280
     0
281
     0
  0
CLASS
  1
AEC_DISP_PROPS_OPENING
  2
AecDbDispPropsOpening
  3
AecArchBase70|Product Desc: Autodesk Architectural Desktop 2007 |Company: Autodesk,Inc. |WEB Address: www.autodesk.com
 90
      129
 91
        2
280
     0
281
     0
  0
CLASS
  1
AEC_DISPREPAECDBDISPREPOPENINGPLAN50
  2
AecDbDispRepOpeningPlan50
  3
AecArchBase70|Product Desc: Autodesk Architectural Desktop 2007 |Company: Autodesk,Inc. |WEB Address: www.autodesk.com
 90
      129
 91
        1
280
     0
281
     0
  0
CLASS
  1
AEC_DISPROPSOPENINGPLANCOMMONHATCHED
  2
AecDbDispPropsOpeningPlanCommonHatched
  3
AecArchBase70|Product Desc: Autodesk Architectural Desktop 2007 |Company: Autodesk,Inc. |WEB Address: www.autodesk.com
 90
      129
 91
        2
280
     0
281
     0
  0
CLASS
  1
AEC_DISPREPAECDBDISPREPOPENINGPLANREFLECTED
  2
AecDbDispRepOpeningPlanReflected
  3
AecArchBase70|Product Desc: Autodesk Architectural Desktop 2007 |Company: Autodesk,Inc. |WEB Address: www.autodesk.com
 90
      129
 91
        1
280
     0
281
     0
  0
CLASS
  1
AEC_DISPROPSOPENINGPLANCOMMON
  2
AecDbDispPropsOpeningPlanCommon
  3
AecArchBase70|Product Desc: Autodesk Architectural Desktop 2007 |Company: Autodesk,Inc. |WEB Address: www.autodesk.com
 90
      129
 91
        1
280
     0
281
     0
  0
CLASS
  1
AEC_DISP_REP_OPENING
  2
AecDbDispRepOpening
  3
AecArchBase70|Product Desc: Autodesk Architectural Desktop 2007 |Company: Autodesk,Inc. |WEB Address: www.autodesk.com
 90
      129
 91
        1
280
     0
281
     0
  0
CLASS
  1
AEC_DISP_REP_MVBLOCK_REF_RCP
  2
AecDbDispRepMvBlockRefRcp
  3
AecArchBase70|Product Desc: Autodesk Architectural Desktop 2007 |Company: Autodesk,Inc. |WEB Address: www.autodesk.com
 90
      129
 91
        1
280
     0
281
     0
  0
CLASS
  1
AEC_DISPREPAECDBDISPREPOPENINGPLAN100
  2
AecDbDispRepOpeningPlan100
  3
AecArchBase70|Product Desc: Autodesk Architectural Desktop 2007 |Company: Autodesk,Inc. |WEB Address: www.autodesk.com
 90
      129
 91
        1
280
     0
281
     0
  0
CLASS
  1
AEC_DISPREPAECDBDISPREPOPENINGSILLPLAN
  2
AecDbDispRepOpeningSillPlan
  3
AecArchBase70|Product Desc: Autodesk Architectural Desktop 2007 |Company: Autodesk,Inc. |WEB Address: www.autodesk.com
 90
      129
 91
        1
280
     0
281
     0
  0
CLASS
  1
AEC_DISPROPSOPENINGSILLPLAN
  2
AecDbDispPropsOpeningSillPlan
  3
AecArchBase70|Product Desc: Autodesk Architectural Desktop 2007 |Company: Autodesk,Inc. |WEB Address: www.autodesk.com
 90
      129
 91
        1
280
     0
281
     0
  0
CLASS
  1
AEC_DISP_REP_RAILING_PLAN
  2
AecDbDispRepRailingPlan
  3
AecArchBase70|Product Desc: Autodesk Architectural Desktop 2007 |Company: Autodesk,Inc. |WEB Address: www.autodesk.com
 90
      129
 91
        1
280
     0
281
     0
  0
CLASS
  1
AEC_DISP_PROPS_RAILING_PLAN
  2
AecDbDispPropsRailingPlan
  3
AecArchBase70|Product Desc: Autodesk Architectural Desktop 2007 |Company: Autodesk,Inc. |WEB Address: www.autodesk.com
 90
      129
 91
        1
280
     0
281
     0
  0
CLASS
  1
AEC_DISP_REP_ROOF_MODEL
  2
AecDbDispRepRoofModel
  3
AecArchBase70|Product Desc: Autodesk Architectural Desktop 2007 |Company: Autodesk,Inc. |WEB Address: www.autodesk.com
 90
      129
 91
        1
280
     0
281
     0
  0
CLASS
  1
AEC_DISP_REP_ROOF_RCP
  2
AecDbDispRepRoofRcp
  3
AecArchBase70|Product Desc: Autodesk Architectural Desktop 2007 |Company: Autodesk,Inc. |WEB Address: www.autodesk.com
 90
      129
 91
        1
280
     0
281
     0
  0
CLASS
  1
AEC_DISP_REP_RAILING_PLAN_100
  2
AecDbDispRepRailingPlan100
  3
AecArchBase70|Product Desc: Autodesk Architectural Desktop 2007 |Company: Autodesk,Inc. |WEB Address: www.autodesk.com
 90
      129
 91
        1
280
     0
281
     0
  0
CLASS
  1
AEC_DISP_ROPS_RAILING_PLAN_100
  2
AecDbDispPropsRailingPlan100
  3
AecArchBase70|Product Desc: Autodesk Architectural Desktop 2007 |Company: Autodesk,Inc. |WEB Address: www.autodesk.com
 90
      129
 91
        1
280
     0
281
     0
  0
CLASS
  1
AEC_DISP_REP_RAILING_PLAN_50
  2
AecDbDispRepRailingPlan50
  3
AecArchBase70|Product Desc: Autodesk Architectural Desktop 2007 |Company: Autodesk,Inc. |WEB Address: www.autodesk.com
 90
      129
 91
        1
280
     0
281
     0
  0
CLASS
  1
AEC_DISP_ROPS_RAILING_PLAN_50
  2
AecDbDispPropsRailingPlan50
  3
AecArchBase70|Product Desc: Autodesk Architectural Desktop 2007 |Company: Autodesk,Inc. |WEB Address: www.autodesk.com
 90
      129
 91
        1
280
     0
281
     0
  0
CLASS
  1
AEC_DISP_REP_RAILING_MODEL
  2
AecDbDispRepRailingModel
  3
AecArchBase70|Product Desc: Autodesk Architectural Desktop 2007 |Company: Autodesk,Inc. |WEB Address: www.autodesk.com
 90
      129
 91
        1
280
     0
281
     0
  0
CLASS
  1
AEC_DISP_PROPS_RAILING_MODEL
  2
AecDbDispPropsRailingModel
  3
AecArchBase70|Product Desc: Autodesk Architectural Desktop 2007 |Company: Autodesk,Inc. |WEB Address: www.autodesk.com
 90
      129
 91
        1
280
     0
281
     0
  0
CLASS
  1
AEC_DISP_REP_STAIR_MODEL
  2
AecDbDispRepStairModel
  3
AecArchBase70|Product Desc: Autodesk Architectural Desktop 2007 |Company: Autodesk,Inc. |WEB Address: www.autodesk.com
 90
      129
 91
        1
280
     0
281
     0
  0
CLASS
  1
AEC_DISP_PROPS_STAIR_MODEL
  2
AecDbDispPropsStairModel
  3
AecArchBase70|Product Desc: Autodesk Architectural Desktop 2007 |Company: Autodesk,Inc. |WEB Address: www.autodesk.com
 90
      129
 91
        1
280
     0
281
     0
  0
CLASS
  1
AEC_DISP_REP_STAIR_PLAN
  2
AecDbDispRepStairPlan
  3
AecArchBase70|Product Desc: Autodesk Architectural Desktop 2007 |Company: Autodesk,Inc. |WEB Address: www.autodesk.com
 90
      129
 91
        1
280
     0
281
     0
  0
CLASS
  1
AEC_DISP_REP_SPACE_RCP
  2
AecDbDispRepSpaceRcp
  3
AecArchBase70|Product Desc: Autodesk Architectural Desktop 2007 |Company: Autodesk,Inc. |WEB Address: www.autodesk.com
 90
      129
 91
        1
280
     0
281
     0
  0
CLASS
  1
AEC_DISP_REP_SPACE_DECOMPOSED
  2
AecDbDispRepSpaceDecomposed
  3
AecArchBase70|Product Desc: Autodesk Architectural Desktop 2007 |Company: Autodesk,Inc. |WEB Address: www.autodesk.com
 90
      129
 91
        1
280
     0
281
     0
  0
CLASS
  1
AEC_DISP_PROPS_SPACE_DECOMPOSED
  2
AecDbDispPropsSpaceDecomposed
  3
AecArchBase70|Product Desc: Autodesk Architectural Desktop 2007 |Company: Autodesk,Inc. |WEB Address: www.autodesk.com
 90
      129
 91
        1
280
     0
281
     0
  0
CLASS
  1
AEC_DISP_REP_ROOFSLAB_MODEL
  2
AecDbDispRepRoofSlabModel
  3
AecArchBase70|Product Desc: Autodesk Architectural Desktop 2007 |Company: Autodesk,Inc. |WEB Address: www.autodesk.com
 90
      129
 91
        1
280
     0
281
     0
  0
CLASS
  1
AEC_DISP_PROPS_ROOFSLAB
  2
AecDbDispPropsRoofSlab
  3
AecArchBase70|Product Desc: Autodesk Architectural Desktop 2007 |Company: Autodesk,Inc. |WEB Address: www.autodesk.com
 90
      129
 91
        1
280
     0
281
     0
  0
CLASS
  1
AEC_DISP_REP_STAIR_PLAN_100
  2
AecDbDispRepStairPlan100
  3
AecArchBase70|Product Desc: Autodesk Architectural Desktop 2007 |Company: Autodesk,Inc. |WEB Address: www.autodesk.com
 90
      129
 91
        1
280
     0
281
     0
  0
CLASS
  1
AEC_DISP_ROPS_STAIR_PLAN_100
  2
AecDbDispPropsStairPlan100
  3
AecArchBase70|Product Desc: Autodesk Architectural Desktop 2007 |Company: Autodesk,Inc. |WEB Address: www.autodesk.com
 90
      129
 91
        1
280
     0
281
     0
  0
CLASS
  1
AEC_DISP_REP_SPACE_MODEL
  2
AecDbDispRepSpaceModel
  3
AecArchBase70|Product Desc: Autodesk Architectural Desktop 2007 |Company: Autodesk,Inc. |WEB Address: www.autodesk.com
 90
      129
 91
        1
280
     0
281
     0
  0
CLASS
  1
AEC_DISP_PROPS_SPACE_MODEL
  2
AecDbDispPropsSpaceModel
  3
AecArchBase70|Product Desc: Autodesk Architectural Desktop 2007 |Company: Autodesk,Inc. |WEB Address: www.autodesk.com
 90
      129
 91
        1
280
     0
281
     0
  0
CLASS
  1
AEC_DISP_REP_SPACE_VOLUME
  2
AecDbDispRepSpaceVolume
  3
AecArchBase70|Product Desc: Autodesk Architectural Desktop 2007 |Company: Autodesk,Inc. |WEB Address: www.autodesk.com
 90
      129
 91
        1
280
     0
281
     0
  0
CLASS
  1
AEC_DISP_REP_STAIR_PLAN_50
  2
AecDbDispRepStairPlan50
  3
AecArchBase70|Product Desc: Autodesk Architectural Desktop 2007 |Company: Autodesk,Inc. |WEB Address: www.autodesk.com
 90
      129
 91
        1
280
     0
281
     0
  0
CLASS
  1
AEC_DISP_ROPS_STAIR_PLAN_50
  2
AecDbDispPropsStairPlan50
  3
AecArchBase70|Product Desc: Autodesk Architectural Desktop 2007 |Company: Autodesk,Inc. |WEB Address: www.autodesk.com
 90
      129
 91
        1
280
     0
281
     0
  0
CLASS
  1
AEC_DISP_REP_SLAB_MODEL
  2
AecDbDispRepSlabModel
  3
AecArchBase70|Product Desc: Autodesk Architectural Desktop 2007 |Company: Autodesk,Inc. |WEB Address: www.autodesk.com
 90
      129
 91
        1
280
     0
281
     0
  0
CLASS
  1
AEC_DISP_PROPS_SLAB
  2
AecDbDispPropsSlab
  3
AecArchBase70|Product Desc: Autodesk Architectural Desktop 2007 |Company: Autodesk,Inc. |WEB Address: www.autodesk.com
 90
      129
 91
        1
280
     0
281
     0
  0
CLASS
  1
AECS_DISP_REP_MEMBER_MODEL_DETAIL
  2
AecsDbDispRepMemberModelDetail
  3
AecArchBase70|Product Desc: Autodesk Architectural Desktop 2007 |Company: Autodesk,Inc. |WEB Address: www.autodesk.com
 90
      129
 91
        1
280
     0
281
     0
  0
CLASS
  1
AECS_DISP_PROPS_MEMBER
  2
AecsDbDispPropsMember
  3
AecArchBase70|Product Desc: Autodesk Architectural Desktop 2007 |Company: Autodesk,Inc. |WEB Address: www.autodesk.com
 90
      129
 91
        2
280
     0
281
     0
  0
CLASS
  1
AECS_DISP_REP_MEMBER_LOGICAL
  2
AecsDbDispRepMemberLogical
  3
AecArchBase70|Product Desc: Autodesk Architectural Desktop 2007 |Company: Autodesk,Inc. |WEB Address: www.autodesk.com
 90
      129
 91
        1
280
     0
281
     0
  0
CLASS
  1
AECS_DISP_PROPS_MEMBER_LOGICAL
  2
AecsDbDispPropsMemberLogical
  3
AecArchBase70|Product Desc: Autodesk Architectural Desktop 2007 |Company: Autodesk,Inc. |WEB Address: www.autodesk.com
 90
      129
 91
        1
280
     0
281
     0
  0
CLASS
  1
AECS_DISP_REP_MEMBER_ELEVATION_DETAIL
  2
AecsDbDispRepMemberElevationDetail
  3
AecArchBase70|Product Desc: Autodesk Architectural Desktop 2007 |Company: Autodesk,Inc. |WEB Address: www.autodesk.com
 90
      129
 91
        1
280
     0
281
     0
  0
CLASS
  1
AECS_DISP_PROPS_MEMBER_PROJECTED
  2
AecsDbDispPropsMemberProjected
  3
AecArchBase70|Product Desc: Autodesk Architectural Desktop 2007 |Company: Autodesk,Inc. |WEB Address: www.autodesk.com
 90
      129
 91
        2
280
     0
281
     0
  0
CLASS
  1
AECS_DISP_REP_MEMBER_MODEL_DESIGN
  2
AecsDbDispRepMemberModelDesign
  3
AecArchBase70|Product Desc: Autodesk Architectural Desktop 2007 |Company: Autodesk,Inc. |WEB Address: www.autodesk.com
 90
      129
 91
        1
280
     0
281
     0
  0
CLASS
  1
AECS_DISP_REP_MEMBER_ELEVATION_DESIGN
  2
AecsDbDispRepMemberElevationDesign
  3
AecArchBase70|Product Desc: Autodesk Architectural Desktop 2007 |Company: Autodesk,Inc. |WEB Address: www.autodesk.com
 90
      129
 91
        1
280
     0
281
     0
  0
CLASS
  1
AECS_DISP_REP_MEMBER_PLAN_DESIGN
  2
AecsDbDispRepMemberPlanDesign
  3
AecArchBase70|Product Desc: Autodesk Architectural Desktop 2007 |Company: Autodesk,Inc. |WEB Address: www.autodesk.com
 90
      129
 91
        1
280
     0
281
     0
  0
CLASS
  1
AECS_DISP_PROPS_MEMBER_PLAN
  2
AecsDbDispPropsMemberPlan
  3
AecArchBase70|Product Desc: Autodesk Architectural Desktop 2007 |Company: Autodesk,Inc. |WEB Address: www.autodesk.com
 90
      129
 91
        2
280
     0
281
     0
  0
CLASS
  1
AECS_DISP_REP_MEMBER_PLAN_DETAIL
  2
AecsDbDispRepMemberPlanDetail
  3
AecArchBase70|Product Desc: Autodesk Architectural Desktop 2007 |Company: Autodesk,Inc. |WEB Address: www.autodesk.com
 90
      129
 91
        1
280
     0
281
     0
  0
CLASS
  1
AECS_DISP_REP_MEMBER_PLAN_SKETCH
  2
AecsDbDispRepMemberPlanSketch
  3
AecArchBase70|Product Desc: Autodesk Architectural Desktop 2007 |Company: Autodesk,Inc. |WEB Address: www.autodesk.com
 90
      129
 91
        1
280
     0
281
     0
  0
CLASS
  1
AECS_DISP_PROPS_MEMBER_PLAN_SKETCH
  2
AecsDbDispPropsMemberPlanSketch
  3
AecArchBase70|Product Desc: Autodesk Architectural Desktop 2007 |Company: Autodesk,Inc. |WEB Address: www.autodesk.com
 90
      129
 91
        1
280
     0
281
     0
  0
CLASS
  1
AEC_DISP_REP_SCHEDULE_TABLE
  2
AecDbDispRepScheduleTable
  3
AecSchedule70|Product Desc: Autodesk Architectural Desktop 2007 |Company: Autodesk,Inc. |WEB Address: www.autodesk.com
 90
      129
 91
        1
280
     0
281
     0
  0
CLASS
  1
AEC_DISP_PROPS_SCHEDULE_TABLE
  2
AecDbDispPropsScheduleTable
  3
AecSchedule70|Product Desc: Autodesk Architectural Desktop 2007 |Company: Autodesk,Inc. |WEB Address: www.autodesk.com
 90
      129
 91
        1
280
     0
281
     0
  0
CLASS
  1
AEC_DISP_REP_SET
  2
AecDbDispRepSet
  3
AecBase70|Product Desc: Autodesk Architectural Desktop 2007 |Company: Autodesk,Inc. |WEB Address: www.autodesk.com
 90
      129
 91
       10
280
     0
281
     0
  0
CLASS
  1
AEC_DISP_REP_CONFIG
  2
AecDbDispRepConfig
  3
AecBase70|Product Desc: Autodesk Architectural Desktop 2007 |Company: Autodesk,Inc. |WEB Address: www.autodesk.com
 90
      129
 91
        2
280
     0
281
     0
  0
CLASS
  1
AEC_CLEANUP_GROUP_DEF
  2
AecDbCleanupGroupDef
  3
AecArchBase70|Product Desc: Autodesk Architectural Desktop 2007 |Company: Autodesk,Inc. |WEB Address: www.autodesk.com
 90
      129
 91
        1
280
     0
281
     0
  0
CLASS
  1
AEC_LAYERKEY_STYLE
  2
AecDbLayerKeyStyle
  3
AecBase70|Product Desc: Autodesk Architectural Desktop 2007 |Company: Autodesk,Inc. |WEB Address: www.autodesk.com
 90
      129
 91
        1
280
     0
281
     0
  0
CLASS
  1
AEC_VARS_ARCHBASE
  2
AecDbVarsArchBase
  3
AecArchBase70|Product Desc: Autodesk Architectural Desktop 2007 |Company: Autodesk,Inc. |WEB Address: www.autodesk.com
 90
      129
 91
        1
280
     0
281
     0
  0
CLASS
  1
AEC_VARS_STRUCTUREBASE
  2
AecsDbVarsStructureBase
  3
AecArchBase70|Product Desc: Autodesk Architectural Desktop 2007 |Company: Autodesk,Inc. |WEB Address: www.autodesk.com
 90
      129
 91
        1
280
     0
281
     0
  0
CLASS
  1
AEC_VARS_MUNICH
  2
AecDbVarsMunich
  3
AecArchBase70|Product Desc: Autodesk Architectural Desktop 2007 |Company: Autodesk,Inc. |WEB Address: www.autodesk.com
 90
      129
 91
        1
280
     0
281
     0
  0
CLASS
  1
BINRECORD
  2
AcAecBinRecord
  3
AecBase70|Product Desc: Autodesk Architectural Desktop 2007 |Company: Autodesk,Inc. |WEB Address: www.autodesk.com
 90
      129
 91
        1
280
     0
281
     0
  0
CLASS
  1
IMAGE
  2
AcDbRasterImage
  3
ISM
 90
     2175
 91
        0
280
     0
281
     1
  0
CLASS
  1
IMAGEDEF_REACTOR
  2
AcDbRasterImageDefReactor
  3
ISM
 90
        1
 91
        0
280
     0
281
     0
  0
CLASS
  1
IMAGEDEF
  2
AcDbRasterImageDef
  3
ISM
 90
        0
 91
        0
280
     0
281
     0
  0
CLASS
  1
RAPIDRTRENDERSETTINGS
  2
AcDbRapidRTRenderSettings
  3
ObjectDBX Classes
 90
     1024
 91
        2
280
     0
281
     0
  0
CLASS
  1
MENTALRAYRENDERSETTINGS
  2
AcDbMentalRayRenderSettings
  3
SCENEOE
 90
     1024
 91
        1
280
     0
281
     0
  0
ENDSEC
  0
SECTION
  2
TABLES
  0
TABLE
  2
VPORT
  5
8
102
{ACAD_XDICTIONARY
360
B51
102
}
330
0
100
AcDbSymbolTable
 70
     1
  0
VPORT
  5
DAB
330
8
100
AcDbSymbolTableRecord
100
AcDbViewportTableRecord
  2
*Active
 70
     0
 10
0.0
 20
0.0
 11
1.0
 21
1.0
 12
27.88495073499666
 22
-36.16018356102453
 13
0.0
 23
0.0
 14
0.5
 24
0.5
 15
0.5
 25
0.5
 16
0.0
 26
0.0
 36
1.0
 17
0.0
 27
0.0
 37
0.0
 40
47.91811297094941
 41
2.068714632174616
 42
50.0
 43
0.0
 44
0.0
 50
0.0
 51
0.0
 71
     0
 72
  1000
 73
     1
 74
     3
 75
     0
 76
     1
 77
     0
 78
     1
281
     0
 65
     1
110
0.0
120
0.0
130
0.0
111
1.0
121
0.0
131
0.0
112
0.0
122
1.0
132
0.0
 79
     0
146
0.0
348
9F
 60
     2
 61
     5
292
     1
282
     1
141
0.0
142
0.0
 63
   250
421
  3355443
1001
ACAD_NAV_VCDISPLAY
1070
     3
  0
ENDTAB
  0
TABLE
  2
LTYPE
  5
5
330
0
100
AcDbSymbolTable
 70
     2
  0
LTYPE
  5
14
330
5
100
AcDbSymbolTableRecord
100
AcDbLinetypeTableRecord
  2
ByBlock
 70
     0
  3

 72
    65
 73
     0
 40
0.0
  0
LTYPE
  5
15
330
5
100
AcDbSymbolTableRecord
100
AcDbLinetypeTableRecord
  2
ByLayer
 70
     0
  3

 72
    65
 73
     0
 40
0.0
  0
LTYPE
  5
16
330
5
100
AcDbSymbolTableRecord
100
AcDbLinetypeTableRecord
  2
Continuous
 70
     0
  3
Solid line
 72
    65
 73
     0
 40
0.0
  0
LTYPE
  5
A610A
330
5
100
AcDbSymbolTableRecord
100
AcDbLinetypeTableRecord
  2
DASHED
 70
     0
  3
Dashed __ __ __ __ __ __ __ __ __ __ __ __ __ _
 72
    65
 73
     2
 40
0.75
 49
0.5
 74
     0
 49
-0.25
 74
     0
  0
ENDTAB
  0
TABLE
  2
LAYER
  5
2
102
{ACAD_XDICTIONARY
360
E7
102
}
330
0
100
AcDbSymbolTable
 70
    27
  0
LAYER
  5
10
102
{ACAD_XDICTIONARY
360
A6C
102
}
330
2
100
AcDbSymbolTableRecord
100
AcDbLayerTableRecord
  2
0
 70
     0
 62
     7
  6
Continuous
370
    -3
390
F
347
98
348
0
  0
LAYER
  5
9D0
330
2
100
AcDbSymbolTableRecord
100
AcDbLayerTableRecord
  2
Defpoints
 70
     0
 62
     7
  6
Continuous
290
     0
370
    -3
390
F
347
98
348
0
  0
LAYER
  5
9583E
330
2
100
AcDbSymbolTableRecord
100
AcDbLayerTableRecord
  2
HI Fitting
 70
     0
 62
     3
  6
Continuous
370
    -3
390
F
347
98
348
0
1001
AcAecLayerStandard
1000

1000

1001
AcCmTransparency
1071
        0
  0
LAYER
  5
9583F
330
2
100
AcDbSymbolTableRecord
100
AcDbLayerTableRecord
  2
HI Lateral
 70
     0
 62
     2
  6
Continuous
370
    -3
390
F
347
98
348
0
1001
AcAecLayerStandard
1000

1000

1001
AcCmTransparency
1071
        0
  0
LAYER
  5
9588B
330
2
100
AcDbSymbolTableRecord
100
AcDbLayerTableRecord
  2
HI Text
 70
     0
 62
     2
  6
Continuous
370
    -3
390
F
347
98
348
0
1001
AcAecLayerStandard
1000

1000

1001
AcCmTransparency
1071
        0
  0
LAYER
  5
9C87A
330
2
100
AcDbSymbolTableRecord
100
AcDbLayerTableRecord
  2
HI HATCH FILL
 70
     0
 62
     9
  6
Continuous
370
    -3
390
F
347
98
348
0
1001
AcAecLayerStandard
1000

1000

1001
AcCmTransparency
1071
        0
  0
LAYER
  5
9CBA3
330
2
100
AcDbSymbolTableRecord
100
AcDbLayerTableRecord
  2
HI Product Outline
 70
     0
 62
     5
  6
Continuous
370
    -3
390
F
347
98
348
0
1001
AcAecLayerStandard
1000

1000

1001
AcCmTransparency
1071
        0
  0
LAYER
  5
9CBA6
330
2
100
AcDbSymbolTableRecord
100
AcDbLayerTableRecord
  2
HI Lateral Detail
 70
     0
 62
   249
  6
Continuous
370
    -3
390
F
347
98
348
0
1001
AcAecLayerStandard
1000

1000

1001
AcCmTransparency
1071
        0
  0
LAYER
  5
9CBA7
330
2
100
AcDbSymbolTableRecord
100
AcDbLayerTableRecord
  2
HI Deatil 1
 70
     0
 62
     2
  6
Continuous
370
    -3
390
F
347
98
348
0
1001
AcAecLayerStandard
1000

1000

1001
AcCmTransparency
1071
        0
  0
LAYER
  5
9CBA8
330
2
100
AcDbSymbolTableRecord
100
AcDbLayerTableRecord
  2
HI Deatil 2
 70
     0
 62
     1
  6
Continuous
370
    -3
390
F
347
98
348
0
1001
AcAecLayerStandard
1000

1000

1001
AcCmTransparency
1071
        0
  0
LAYER
  5
9CBA9
330
2
100
AcDbSymbolTableRecord
100
AcDbLayerTableRecord
  2
HI Detail 3
 70
     0
 62
   249
  6
Continuous
370
    -3
390
F
347
98
348
0
1001
AcAecLayerStandard
1000

1000

1001
AcCmTransparency
1071
        0
  0
LAYER
  5
9CBAB
330
2
100
AcDbSymbolTableRecord
100
AcDbLayerTableRecord
  2
HI Dimensions
 70
     0
 62
     1
  6
Continuous
370
    -3
390
F
347
98
348
0
1001
AcAecLayerStandard
1000

1000

1001
AcCmTransparency
1071
        0
  0
LAYER
  5
9EC2B
102
{ACAD_XDICTIONARY
360
9EC2C
102
}
330
2
100
AcDbSymbolTableRecord
100
AcDbLayerTableRecord
  2
L-dtl-htch
 70
     0
 62
   212
  6
Continuous
370
     0
390
F
347
98
348
0
1001
AcAecLayerStandard
1000

1000

  0
LAYER
  5
A0E56
330
2
100
AcDbSymbolTableRecord
100
AcDbLayerTableRecord
  2
HI Building Wall
 70
     0
 62
     6
  6
Continuous
370
    25
390
F
347
98
348
0
1001
AcAecLayerStandard
1000

1000

1001
AcCmTransparency
1071
        0
  0
LAYER
  5
A1F94
330
2
100
AcDbSymbolTableRecord
100
AcDbLayerTableRecord
  2
HI Text2
 70
     0
 62
     1
  6
Continuous
370
    -3
390
F
347
98
348
0
1001
AcAecLayerStandard
1000

1000

1001
AcCmTransparency
1071
        0
  0
LAYER
  5
A21B7
330
2
100
AcDbSymbolTableRecord
100
AcDbLayerTableRecord
  2
HI No Print
 70
     0
 62
     7
  6
Continuous
290
     0
370
    -3
390
F
347
98
348
0
1001
AcAecLayerStandard
1000

1000

1001
AcCmTransparency
1071
        0
  0
LAYER
  5
A610B
330
2
100
AcDbSymbolTableRecord
100
AcDbLayerTableRecord
  2
D-OBJECT
 70
     0
 62
     2
  6
Continuous
370
    -3
390
F
347
98
348
0
1001
AcAecLayerStandard
1000

1000

1001
AcCmTransparency
1071
        0
  0
LAYER
  5
A610C
330
2
100
AcDbSymbolTableRecord
100
AcDbLayerTableRecord
  2
D-OBJECT LIGHT
 70
     0
 62
     4
  6
Continuous
370
    -3
390
F
347
98
348
0
1001
AcAecLayerStandard
1000

1000

1001
AcCmTransparency
1071
        0
  0
LAYER
  5
A610D
330
2
100
AcDbSymbolTableRecord
100
AcDbLayerTableRecord
  2
D-OBJECT HEAVY
 70
     0
 62
     3
  6
Continuous
370
    -3
390
F
347
98
348
0
1001
AcAecLayerStandard
1000

1000

1001
AcCmTransparency
1071
        0
  0
LAYER
  5
A610E
330
2
100
AcDbSymbolTableRecord
100
AcDbLayerTableRecord
  2
D-TEXT
 70
     0
 62
     2
  6
Continuous
370
    -3
390
F
347
98
348
0
1001
AcAecLayerStandard
1000

1000

1001
AcCmTransparency
1071
        0
  0
LAYER
  5
A610F
330
2
100
AcDbSymbolTableRecord
100
AcDbLayerTableRecord
  2
D-LEADER
 70
     0
 62
     2
  6
Continuous
370
    -3
390
F
347
98
348
0
1001
AcAecLayerStandard
1000

1000

1001
AcCmTransparency
1071
        0
  0
LAYER
  5
A6110
330
2
100
AcDbSymbolTableRecord
100
AcDbLayerTableRecord
  2
D-HATCH
 70
     0
 62
     1
  6
Continuous
370
    -3
390
F
347
98
348
0
1001
AcAecLayerStandard
1000

1000

1001
AcCmTransparency
1071
        0
  0
LAYER
  5
A6111
330
2
100
AcDbSymbolTableRecord
100
AcDbLayerTableRecord
  2
D-DASHED LIGHT
 70
     0
 62
     4
  6
DASHED
370
    -3
390
F
347
98
348
0
1001
AcAecLayerStandard
1000

1000

1001
AcCmTransparency
1071
        0
  0
LAYER
  5
A6112
330
2
100
AcDbSymbolTableRecord
100
AcDbLayerTableRecord
  2
D-HATCH SCREENED
 70
     0
 62
     8
  6
Continuous
370
    -3
390
F
347
98
348
0
1001
AcAecLayerStandard
1000

1000

1001
AcCmTransparency
1071
        0
  0
LAYER
  5
AB757
330
2
100
AcDbSymbolTableRecord
100
AcDbLayerTableRecord
  2
D-PLANTS
 70
     0
 62
     4
  6
Continuous
370
    -3
390
F
347
98
348
0
1001
AcAecLayerStandard
1000

1000

1001
AcCmTransparency
1071
        0
  0
LAYER
  5
ABF9B
330
2
100
AcDbSymbolTableRecord
100
AcDbLayerTableRecord
  2
D-OBJECT SCREENED
 70
     0
 62
   253
  6
Continuous
370
    -3
390
F
347
98
348
0
1001
AcCmTransparency
1071
        0
1001
AcAecLayerStandard
1000

1000

  0
LAYER
  5
AE1AE
102
{ACAD_XDICTIONARY
360
AE1AF
102
}
330
2
100
AcDbSymbolTableRecord
100
AcDbLayerTableRecord
  2
LK-IRRG-025M
 70
     0
 62
     4
  6
Continuous
370
    -3
390
F
347
98
348
0
  0
ENDTAB
  0
TABLE
  2
STYLE
  5
3
330
0
100
AcDbSymbolTable
 70
     5
  0
STYLE
  5
11
330
3
100
AcDbSymbolTableRecord
100
AcDbTextStyleTableRecord
  2
Standard
 70
     0
 40
0.0
 41
1.0
 50
0.0
 71
     0
 42
12.10402048440558
  3
arial.ttf
  4

1001
ACAD
1000
Arial
1071
       34
  0
STYLE
  5
1BACD
330
3
100
AcDbSymbolTableRecord
100
AcDbTextStyleTableRecord
  2
DIMS
 70
     0
 40
0.0
 41
1.0
 50
0.0
 71
     0
 42
0.2
  3
arial.ttf
  4

1001
ACAD
1000
Arial
1071
       34
  0
STYLE
  5
5DCD6
330
3
100
AcDbSymbolTableRecord
100
AcDbTextStyleTableRecord
  2
Hunter
 70
     0
 40
0.0
 41
0.7
 50
0.0
 71
     0
 42
0.09375
  3
romans.shx
  4

  0
STYLE
  5
78DB5
330
3
100
AcDbSymbolTableRecord
100
AcDbTextStyleTableRecord
  2
STYLE1
 70
     0
 40
0.0
 41
1.0
 50
0.0
 71
     0
 42
0.2
  3
txt
  4

  0
STYLE
  5
A6113
330
3
100
AcDbSymbolTableRecord
100
AcDbTextStyleTableRecord
  2
romand
 70
     0
 40
0.25
 41
1.0
 50
0.0
 71
     0
 42
0.25
  3
romand.shx
  4

  0
ENDTAB
  0
TABLE
  2
VIEW
  5
6
330
0
100
AcDbSymbolTable
 70
     0
  0
ENDTAB
  0
TABLE
  2
UCS
  5
7
330
0
100
AcDbSymbolTable
 70
     0
  0
ENDTAB
  0
TABLE
  2
APPID
  5
9
330
0
100
AcDbSymbolTable
 70
    18
  0
APPID
  5
12
330
9
100
AcDbSymbolTableRecord
100
AcDbRegAppTableRecord
  2
ACAD
 70
     0
  0
APPID
  5
BE
330
9
100
AcDbSymbolTableRecord
100
AcDbRegAppTableRecord
  2
ACAD_PSEXT
 70
     0
  0
APPID
  5
DBF
330
9
100
AcDbSymbolTableRecord
100
AcDbRegAppTableRecord
  2
AcAecLayerStandard
 70
     0
  0
APPID
  5
FEF2
330
9
100
AcDbSymbolTableRecord
100
AcDbRegAppTableRecord
  2
ACAD_DSTYLE_DIMJOGGED_JOGANGLE_SYMBOL
 70
     0
  0
APPID
  5
1BACF
330
9
100
AcDbSymbolTableRecord
100
AcDbRegAppTableRecord
  2
ACAD_DSTYLE_DIMJAG
 70
     0
  0
APPID
  5
1BAD0
330
9
100
AcDbSymbolTableRecord
100
AcDbRegAppTableRecord
  2
ACAD_DSTYLE_DIMTALN
 70
     0
  0
APPID
  5
5B55B
330
9
100
AcDbSymbolTableRecord
100
AcDbRegAppTableRecord
  2
ACAD_NAV_VCDISPLAY
 70
     0
  0
APPID
  5
5C537
330
9
100
AcDbSymbolTableRecord
100
AcDbRegAppTableRecord
  2
AEC_OBJVER_INFO
 70
     0
  0
APPID
  5
95767
330
9
100
AcDbSymbolTableRecord
100
AcDbRegAppTableRecord
  2
AcCmTransparency
 70
     0
  0
APPID
  5
9C807
330
9
100
AcDbSymbolTableRecord
100
AcDbRegAppTableRecord
  2
AEC_XDATA_BOUND_SPACE
 70
     0
  0
APPID
  5
9C925
330
9
100
AcDbSymbolTableRecord
100
AcDbRegAppTableRecord
  2
GradientColor1ACI
 70
     0
  0
APPID
  5
9C926
330
9
100
AcDbSymbolTableRecord
100
AcDbRegAppTableRecord
  2
GradientColor2ACI
 70
     0
  0
APPID
  5
A0A0A
330
9
100
AcDbSymbolTableRecord
100
AcDbRegAppTableRecord
  2
ACAD_MLEADERVER
 70
     0
  0
APPID
  5
A0A2C
330
9
100
AcDbSymbolTableRecord
100
AcDbRegAppTableRecord
  2
ManulPointsAssociative
 70
     0
  0
APPID
  5
A0A2D
330
9
100
AcDbSymbolTableRecord
100
AcDbRegAppTableRecord
  2
LandFX
 70
     0
  0
APPID
  5
A0DDB
330
9
100
AcDbSymbolTableRecord
100
AcDbRegAppTableRecord
  2
ACAD_EXEMPT_FROM_CAD_STANDARDS
 70
     0
  0
APPID
  5
A3AA6
330
9
100
AcDbSymbolTableRecord
100
AcDbRegAppTableRecord
  2
ACAD_DSTYLE_DIMRADIAL_EXTENSION
 70
     0
  0
APPID
  5
AE1B0
330
9
100
AcDbSymbolTableRecord
100
AcDbRegAppTableRecord
  2
LANDTECH
 70
     0
  0
ENDTAB
  0
TABLE
  2
DIMSTYLE
  5
A
330
0
100
AcDbSymbolTable
 70
     3
100
AcDbDimStyleTable
 71
     3
340
9EC41
340
1BACE
340
27
  0
DIMSTYLE
105
27
330
A
100
AcDbSymbolTableRecord
100
AcDbDimStyleTableRecord
  2
Standard
 70
     0
340
11
  0
DIMSTYLE
105
1BACE
330
A
100
AcDbSymbolTableRecord
100
AcDbDimStyleTableRecord
  2
LandMatters
 70
     0
 41
0.125
 49
0.18
 73
     0
 74
     0
140
0.125
141
0.0750000000000001
147
0.095
174
     1
176
     2
177
     2
178
     2
271
     3
272
     3
277
     4
279
     1
289
     1
340
1BACD
342
1BAAE
1001
ACAD_DSTYLE_DIMJOGGED_JOGANGLE_SYMBOL
1070
   384
1040
0.7853981633974483
1001
ACAD_DSTYLE_DIMJAG
1070
   388
1040
1.5
1001
ACAD_DSTYLE_DIMTALN
1070
   392
1070
     0
  0
DIMSTYLE
105
9EC41
330
A
100
AcDbSymbolTableRecord
100
AcDbDimStyleTableRecord
  2
HUNTER-1.5INCH
 70
     0
 41
1.0
 42
0.05
 43
0.505
 44
0.675
 46
0.675
 73
     0
 74
     0
 78
     3
140
1.0
144
0.9999999999999998
147
0.04
172
     1
176
   256
177
   256
178
   256
271
     0
272
     0
277
     4
279
     2
289
     1
340
5DCD6
341
9EC11
342
1BAAE
371
    -1
  0
ENDTAB
  0
TABLE
  2
BLOCK_RECORD
  5
1
330
0
100
AcDbSymbolTable
 70
     7
  0
BLOCK_RECORD
  5
1F
102
{ACAD_XDICTIONARY
360
A62
102
}
330
1
100
AcDbSymbolTableRecord
100
AcDbBlockTableRecord
  2
*Model_Space
340
22
 70
     0
280
     1
281
     0
  0
BLOCK_RECORD
  5
A21B8
330
1
100
AcDbSymbolTableRecord
100
AcDbBlockTableRecord
  2
*Paper_Space
340
A21B9
 70
     0
280
     1
281
     0
  0
BLOCK_RECORD
  5
1BAAE
330
1
100
AcDbSymbolTableRecord
100
AcDbBlockTableRecord
  2
_ARCHTICK
340
0
 70
     0
280
     1
281
     0
  0
BLOCK_RECORD
  5
9EC11
330
1
100
AcDbSymbolTableRecord
100
AcDbBlockTableRecord
  2
_Open90
340
0
 70
     0
280
     1
281
     0
  0
BLOCK_RECORD
  5
A024C
330
1
100
AcDbSymbolTableRecord
100
AcDbBlockTableRecord
  2
_Integral
340
0
 70
     0
280
     1
281
     0
  0
BLOCK_RECORD
  5
A21A0
330
1
100
AcDbSymbolTableRecord
100
AcDbBlockTableRecord
  2
*Paper_Space3
340
A21A1
 70
     0
280
     1
281
     0
  0
BLOCK_RECORD
  5
A3B49
330
1
100
AcDbSymbolTableRecord
100
AcDbBlockTableRecord
  2
_FILLED
340
0
 70
     0
280
     1
281
     0
  0
BLOCK_RECORD
  5
AE1B1
330
1
100
AcDbSymbolTableRecord
100
AcDbBlockTableRecord
  2
LAFX-90EL-SLSL
340
0
 70
     0
280
     1
281
     0
  0
BLOCK_RECORD
  5
AE3D7
330
1
100
AcDbSymbolTableRecord
100
AcDbBlockTableRecord
  2
break
340
0
102
{BLKREFS
331
AE3DA
102
}
 70
     1
280
     1
281
     0
  0
ENDTAB
  0
ENDSEC
  0
SECTION
  2
BLOCKS
  0
BLOCK
  5
20
330
1F
100
AcDbEntity
  8
0
100
AcDbBlockBegin
  2
*Model_Space
 70
     0
 10
0.0
 20
0.0
 30
0.0
  3
*Model_Space
  1

  0
ENDBLK
  5
21
330
1F
100
AcDbEntity
  8
0
100
AcDbBlockEnd
  0
BLOCK
  5
A21BA
330
A21B8
100
AcDbEntity
 67
     1
  8
0
100
AcDbBlockBegin
  2
*Paper_Space
 70
     0
 10
0.0
 20
0.0
 30
0.0
  3
*Paper_Space
  1

  0
ENDBLK
  5
A21BB
330
A21B8
100
AcDbEntity
 67
     1
  8
0
100
AcDbBlockEnd
  0
BLOCK
  5
1BAAF
330
1BAAE
100
AcDbEntity
  8
0
100
AcDbBlockBegin
  2
_ARCHTICK
 70
     0
 10
0.0
 20
0.0
 30
0.0
  3
_ARCHTICK
  1

  0
LWPOLYLINE
  5
1BAB0
330
1BAAE
100
AcDbEntity
  8
0
  6
ByBlock
 62
     0
100
AcDbPolyline
 90
        2
 70
     0
 43
0.15
 10
-0.5
 20
-0.5
 10
0.5
 20
0.5
  0
ENDBLK
  5
1BAB1
330
1BAAE
100
AcDbEntity
  8
0
100
AcDbBlockEnd
  0
BLOCK
  5
9EC12
330
9EC11
100
AcDbEntity
  8
0
100
AcDbBlockBegin
  2
_Open90
 70
     0
 10
0.0
 20
0.0
 30
0.0
  3
_Open90
  1

  0
LINE
  5
9EC13
330
9EC11
100
AcDbEntity
  8
L-dtl-htch
 62
     0
370
    -2
100
AcDbLine
 10
-0.5
 20
0.5
 30
0.0
 11
0.0
 21
0.0
 31
0.0
  0
LINE
  5
9EC14
330
9EC11
100
AcDbEntity
  8
L-dtl-htch
 62
     0
370
    -2
100
AcDbLine
 10
0.0
 20
0.0
 30
0.0
 11
-0.5
 21
-0.5
 31
0.0
  0
LINE
  5
9EC15
330
9EC11
100
AcDbEntity
  8
L-dtl-htch
 62
     0
370
    -2
100
AcDbLine
 10
0.0
 20
0.0
 30
0.0
 11
-1.0
 21
0.0
 31
0.0
  0
ENDBLK
  5
9EC16
330
9EC11
100
AcDbEntity
  8
0
100
AcDbBlockEnd
  0
BLOCK
  5
A024F
330
A024C
100
AcDbEntity
  8
0
100
AcDbBlockBegin
  2
_Integral
 70
     0
 10
0.0
 20
0.0
 30
0.0
  3
_Integral
  1

  0
ARC
  5
A024D
330
A024C
100
AcDbEntity
  8
0
  6
ByBlock
 62
     0
370
    -2
100
AcDbCircle
 10
0.44488802
 20
-0.09133463
 30
0.0
 40
0.4541666700000001
100
AcDbArc
 50
101.9999999980395
 51
167.9999999799193
  0
ARC
  5
A024E
330
A024C
100
AcDbEntity
  8
0
  6
ByBlock
 62
     0
370
    -2
100
AcDbCircle
 10
-0.44488802
 20
0.09133463
 30
0.0
 40
0.4541666700000001
100
AcDbArc
 50
282.0000000215427
 51
348.0000000034225
  0
ENDBLK
  5
A0250
330
A024C
100
AcDbEntity
  8
0
100
AcDbBlockEnd
  0
BLOCK
  5
A21A2
330
A21A0
100
AcDbEntity
 67
     1
  8
0
100
AcDbBlockBegin
  2
*Paper_Space3
 70
     0
 10
0.0
 20
0.0
 30
0.0
  3
*Paper_Space3
  1

  0
VIEWPORT
  5
A21AE
102
{ACAD_XDICTIONARY
360
A21AF
102
}
330
A21A0
100
AcDbEntity
 67
     1
  8
0
100
AcDbViewport
 10
5.923338180057497
 20
3.87567161218564
 30
0.0
 40
22.96926683413258
 41
11.10315868457288
 68
     0
 69
     0
 12
5.923338180057497
 22
3.87567161218564
 13
0.0
 23
0.0
 14
0.5
 24
0.5
 15
0.5
 25
0.5
 16
0.0
 26
0.0
 36
1.0
 17
0.0
 27
0.0
 37
0.0
 42
50.0
 43
0.0
 44
0.0
 45
11.10315868457288
 50
0.0
 51
0.0
 72
  1000
 90
   819232
  1

281
     0
 71
     1
 74
     0
110
0.0
120
0.0
130
0.0
111
1.0
121
0.0
131
0.0
112
0.0
122
1.0
132
0.0
 79
     0
146
0.0
170
     0
 61
     5
348
9F
292
     1
282
     1
141
0.0
142
0.0
 63
   250
421
  3355443
  0
VIEWPORT
  5
A21B2
102
{ACAD_XDICTIONARY
360
A21B3
102
}
330
A21A0
100
AcDbEntity
 67
     1
  8
HI No Print
100
AcDbViewport
 10
4.807258931670588
 20
4.0197692194672
 30
0.0
 40
9.521960265855952
 41
7.958251408262441
 68
     0
 69
     0
 12
132.3939658435514
 22
19.37500917325726
 13
0.0
 23
0.0
 14
0.5
 24
0.5
 15
0.5
 25
0.5
 16
0.0
 26
0.0
 36
178.3294139684135
 17
-100.2903367760448
 27
-56.40334146147367
 37
0.0
 42
50.0
 43
0.0
 44
0.0
 45
43.35499698478776
 50
0.0
 51
0.0
 72
  1000
 90
   557664
  1

281
     0
 71
     1
 74
     0
110
0.0
120
0.0
130
0.0
111
1.0
121
0.0
131
0.0
112
0.0
122
1.0
132
0.0
 79
     0
146
0.0
170
     0
 61
     5
348
9F
292
     1
282
     1
141
0.0
142
0.0
 63
   250
421
  3355443
  0
ENDBLK
  5
A21A3
330
A21A0
100
AcDbEntity
 67
     1
  8
0
100
AcDbBlockEnd
  0
BLOCK
  5
A3B4A
330
A3B49
100
AcDbEntity
  8
0
100
AcDbBlockBegin
  2
_FILLED
 70
     0
 10
0.0
 20
0.0
 30
0.0
  3
_FILLED
  1

  0
SOLID
  5
A3B4B
330
A3B49
100
AcDbEntity
  8
0
  6
ByBlock
 62
     0
100
AcDbTrace
 10
0.0
 20
0.0
 30
0.0
 11
-1.0
 21
0.16875
 31
0.0
 12
-1.0
 22
-0.16875
 32
0.0
 13
-1.0
 23
-0.16875
 33
0.0
  0
ENDBLK
  5
A3B4C
330
A3B49
100
AcDbEntity
  8
0
  6
ByBlock
 62
     0
100
AcDbBlockEnd
  0
BLOCK
  5
AE1BA
330
AE1B1
100
AcDbEntity
  8
0
100
AcDbBlockBegin
  2
LAFX-90EL-SLSL
 70
     0
 10
0.0
 20
0.0
 30
0.0
  3
LAFX-90EL-SLSL
  1

  0
LINE
  5
AE1B2
330
AE1B1
100
AcDbEntity
  8
LK-IRRG-025M
100
AcDbLine
 10
0.6813050990954244
 20
0.0145731464300489
 30
0.0
 11
-0.8010426600610056
 21
0.0145731464300489
 31
0.0
  0
ARC
  5
AE1B3
330
AE1B1
100
AcDbEntity
  8
LK-IRRG-025M
100
AcDbCircle
 10
0.0433116563140779
 20
1.382761901014866
 30
0.0
 40
0.8506595227023041
100
AcDbArc
 50
92.94798381309098
 51
173.019636851632
  0
LINE
  5
AE1B4
330
AE1B1
100
AcDbEntity
  8
LK-IRRG-025M
100
AcDbLine
 10
-0.8010426600610056
 20
0.0145731464300489
 30
0.0
 11
-0.8010426600610056
 21
1.48614184095912
 31
0.0
  0
LINE
  5
AE1B5
330
AE1B1
100
AcDbEntity
  8
LK-IRRG-025M
100
AcDbLine
 10
1.406332670756085
 20
2.232295692044512
 30
0.0
 11
1.406332670756085
 21
0.741267751305383
 31
0.0
  0
LINE
  5
AE1B6
330
AE1B1
100
AcDbEntity
  8
LK-IRRG-025M
100
AcDbLine
 10
1.406332670756085
 20
0.741267751305383
 30
0.0
 11
0.6813050990954244
 21
0.741267751305383
 31
0.0
  0
LINE
  5
AE1B7
330
AE1B1
100
AcDbEntity
  8
LK-IRRG-025M
100
AcDbLine
 10
0.6813050990954244
 20
0.7416243756811128
 30
0.0
 11
0.6813050990954244
 21
0.0145731464300489
 31
0.0
  0
LINE
  5
AE1B8
330
AE1B1
100
AcDbEntity
  8
LK-IRRG-025M
100
AcDbLine
 10
0.6813050990954244
 20
0.741267751305383
 30
0.0
 11
0.6813050990954244
 21
0.7416243756811128
 31
0.0
  0
LINE
  5
AE1B9
330
AE1B1
100
AcDbEntity
  8
LK-IRRG-025M
100
AcDbLine
 10
-0.0004371889610599
 20
2.232295692044512
 30
0.0
 11
1.406332670756085
 21
2.232295692044512
 31
0.0
  0
ENDBLK
  5
AE1BB
330
AE1B1
100
AcDbEntity
  8
0
100
AcDbBlockEnd
  0
BLOCK
  5
AE3D8
330
AE3D7
100
AcDbEntity
  8
0
100
AcDbBlockBegin
  2
break
 70
     0
 10
0.0
 20
0.0
 30
0.0
  3
break
  1

  0
ENDBLK
  5
AE3D9
330
AE3D7
100
AcDbEntity
  8
0
100
AcDbBlockEnd
  0
ENDSEC
  0
SECTION
  2
ENTITIES
  0
CIRCLE
  5
A06B8
330
1F
100
AcDbEntity
  8
HI Text
100
AcDbCircle
 10
9.456222684732072
 20
-48.82061127142208
 30
0.0
 40
1.633232321863463
  0
LINE
  5
A06B9
330
1F
100
AcDbEntity
  8
HI Text
100
AcDbLine
 10
11.0894550065951
 20
-48.82061127142208
 30
0.0
 11
52.32858283020016
 21
-48.82061127142208
 31
0.0
  0
CIRCLE
  5
A06BA
330
1F
100
AcDbEntity
  8
HI Text
100
AcDbCircle
 10
14.54444554289657
 20
-49.28059726609109
 30
0.0
 40
0.0666400503025599
  0
TEXT
  5
A06BB
330
1F
100
AcDbEntity
  8
HI Text
100
AcDbText
 10
14.51714492455592
 20
-49.32132963757154
 30
0.0
 40
0.0866448019748771
  1
R
  7
STYLE1
 72
     1
 11
14.54602652521422
 21
-49.32132963757154
 31
0.0
100
AcDbText
  0
CIRCLE
  5
A06BC
102
{ACAD_REACTORS
330
AE0D0
102
}
330
1F
100
AcDbEntity
  8
HI Text
100
AcDbCircle
 10
14.37948155883956
 20
-49.46296396602199
 30
0.0
 40
0.0996040771360683
  0
LWPOLYLINE
  5
A06BD
102
{ACAD_REACTORS
330
AE0D0
102
}
330
1F
100
AcDbEntity
  8
HI Text
100
AcDbPolyline
 90
        5
 70
     1
 43
0.0
 10
14.02435566490735
 20
-49.60893834462168
 10
14.02435566491468
 20
-49.55098789851589
 42
0.3591622824268968
 10
13.84044437867479
 20
-49.36369840623399
 10
13.80648829620296
 20
-49.36369840622048
 10
13.80648829620296
 20
-49.60893834462168
  0
LWPOLYLINE
  5
A06BE
102
{ACAD_REACTORS
330
AE0D0
102
}
330
1F
100
AcDbEntity
  8
HI Text
100
AcDbPolyline
 90
        5
 70
     1
 43
0.0
 10
12.42239856240457
 20
-49.85451680035078
 10
12.47601203496535
 20
-49.85451680035078
 10
12.47601203496535
 20
-49.36335988889322
 10
12.26742937931576
 20
-49.36335988889322
 10
12.26742937931576
 20
-49.69954761726191
 42
0.4142135623730951
  0
LWPOLYLINE
  5
A06BF
102
{ACAD_REACTORS
330
AE0D0
102
}
330
1F
100
AcDbEntity
  8
HI Text
100
AcDbPolyline
 90
        5
 70
     1
 43
0.0
 10
12.52299058853851
 20
-49.36335988889322
 10
12.73157324418819
 20
-49.36335988889322
 10
12.73157324418819
 20
-49.69954761726191
 42
-0.4142135623730951
 10
12.57660406109929
 20
-49.85451680035073
 10
12.52299058853851
 20
-49.85451680035078
  0
LWPOLYLINE
  5
A06C0
102
{ACAD_REACTORS
330
AE0D0
102
}
330
1F
100
AcDbEntity
  8
HI Text
100
AcDbPolyline
 90
        5
 70
     1
 43
0.0
 10
13.03411300698403
 20
-49.36335988889322
 10
13.03411300698403
 20
-49.85451680035078
 10
13.24269566263365
 20
-49.85451680035078
 10
13.24269566263365
 20
-49.51832907198206
 42
0.4142135623730948
 10
13.08772647954484
 20
-49.36335988889325
  0
LWPOLYLINE
  5
A06C1
102
{ACAD_REACTORS
330
AE0D0
102
}
330
1F
100
AcDbEntity
  8
HI Text
100
AcDbPolyline
 90
        4
 70
     1
 43
0.0
 10
14.04782524548213
 20
-49.85451680034346
 10
14.04782524548213
 20
-49.3633598888859
 10
14.25640790113178
 20
-49.3633598888859
 10
14.25640790113178
 20
-49.85451680034346
  0
LWPOLYLINE
  5
A06C2
102
{ACAD_REACTORS
330
AE0D0
102
}
330
1F
100
AcDbEntity
  8
HI Text
100
AcDbPolyline
 90
        7
 70
     0
 43
0.0
 10
13.78154542646641
 20
-49.85417828301
 42
0.1809313373683727
 10
14.01503047162058
 20
-49.76682929043811
 10
14.01503047161069
 20
-49.70175337007184
 42
-0.2202952373044754
 10
13.75660255672975
 20
-49.79832151750051
 10
13.75660255672912
 20
-49.36369840623405
 42
0.9488198287109453
 10
13.7566025567298
 20
-49.85417828300997
 10
13.78154542646641
 20
-49.85417828301
  0
LWPOLYLINE
  5
A06C3
102
{ACAD_REACTORS
330
AE0D0
102
}
330
1F
100
AcDbEntity
  8
HI Text
100
AcDbPolyline
 90
       12
 70
     1
 43
0.0
 10
11.96589402738178
 20
-49.50899946386529
 10
11.96589402738178
 20
-49.85451680035078
 10
12.22045082574263
 20
-49.85451680035078
 10
12.22045082574263
 20
-49.1641517346211
 10
11.96589402738178
 20
-49.1641517346211
 10
11.96589402738184
 20
-49.44505197232587
 10
11.89782284570927
 20
-49.44505197232587
 10
11.89782284570944
 20
-49.1641517346211
 10
11.64326604734842
 20
-49.1641517346211
 10
11.64326604734842
 20
-49.85451680035078
 10
11.89782284570936
 20
-49.85451680035078
 10
11.89782284570936
 20
-49.50899946386529
  0
LWPOLYLINE
  5
A06C4
102
{ACAD_REACTORS
330
AE0D0
102
}
330
1F
100
AcDbEntity
  8
HI Text
100
AcDbPolyline
 90
        4
 70
     1
 43
0.0
 10
12.9871344534109
 20
-49.85451680035078
 10
12.77855179776128
 20
-49.85451680035078
 10
12.77855179776128
 20
-49.36335988889322
 10
12.9871344534109
 20
-49.36335988889322
  0
LWPOLYLINE
  5
A06C5
102
{ACAD_REACTORS
330
AE0D0
102
}
330
1F
100
AcDbEntity
  8
HI Text
100
AcDbPolyline
 90
        9
 70
     1
 43
0.0
 10
13.21778204662081
 20
-49.41726327181392
 10
13.49821747942676
 20
-49.17036961945907
 10
13.49821747942676
 20
-49.36335988889322
 10
13.58191838458308
 20
-49.36335988889322
 10
13.58191838458314
 20
-49.41726327181392
 10
13.49821747942676
 20
-49.41726327181392
 10
13.49821747942676
 20
-49.85451680035078
 10
13.28963482377711
 20
-49.85451680035078
 10
13.28963482377711
 20
-49.41726327181392
  0
MTEXT
  5
A06C6
102
{ACAD_XDICTIONARY
360
A09BD
102
}
330
1F
100
AcDbEntity
  8
HI Text
100
AcDbMText
 10
59.01949537159783
 20
-48.00729769804487
 30
0.0
 40
0.9703124999999996
 41
47.50030312099835
 46
2.63846457196458
 71
     6
 72
     1
  1
{\fArial|b0|i0|c0|p34;PROFESSIONAL LANDSCAPE DRIPLINE - CONNECTION WITH DRIPLINE AND TEE}
  7
Hunter
 73
     1
 44
1.0
  0
MTEXT
  5
A06C7
330
1F
100
AcDbEntity
  8
HI Text
100
AcDbMText
 10
51.9797132252861
 20
-49.40131920685637
 30
0.0
 40
0.5624999999999999
 41
0.0
 46
0.0
 71
     6
 72
     1
  1
{\fArial|b0|i0|c0|p34;NOT TO SCALE}
  7
Hunter
 73
     1
 44
1.0
  0
MTEXT
  5
A06C8
330
1F
100
AcDbEntity
  8
HI Text
100
AcDbMText
 10
10.35980817268731
 20
-48.8533187892898
 30
0.0
 40
1.455468749999999
 41
0.0
 46
0.0
 71
     6
 72
     1
  1
{\fArial|b0|i0|c0|p34;XX}
  7
Hunter
 73
     1
 44
1.0
  0
MTEXT
  5
A2287
102
{ACAD_XDICTIONARY
360
A2288
102
}
330
1F
100
AcDbEntity
  8
HI Text
100
AcDbMText
 10
15.35618702413487
 20
-49.1641517346211
 30
0.0
 40
0.9703124999999996
 41
33.6762967440676
 46
0.0
 71
     1
 72
     1
  1
{\fArial|b0|i0|c0|p34;HM.PLD.06}
  7
Hunter
 73
     1
 44
1.0
  0
MTEXT
  5
ABD13
330
1F
100
AcDbEntity
  8
HI Text
100
AcDbMText
 10
42.53830967646567
 20
-23.80894056844021
 30
0.0
 40
0.5
 41
0.0
 46
0.0
 71
     6
 72
     1
  1
{\fArial|b0|i0|c0|p34;1}
  7
Hunter
 73
     1
 44
1.0
  0
CIRCLE
  5
ABD14
330
1F
100
AcDbEntity
  8
HI Text
100
AcDbCircle
 10
42.46761374038337
 20
-25.7093695775265
 30
0.0
 40
0.511352622321557
  0
MTEXT
  5
ABD15
330
1F
100
AcDbEntity
  8
HI Text
100
AcDbMText
 10
42.53830967646567
 20
-25.67901607587222
 30
0.0
 40
0.5
 41
0.0
 46
0.0
 71
     6
 72
     1
  1
{\fArial|b0|i0|c0|p34;2}
  7
Hunter
 73
     1
 44
1.0
  0
CIRCLE
  5
ABD16
330
1F
100
AcDbEntity
  8
HI Text
100
AcDbCircle
 10
42.46761374038337
 20
-23.83929407009449
 30
0.0
 40
0.511352622321557
  0
LWPOLYLINE
  5
ABD17
330
1F
100
AcDbEntity
  8
HI Text
100
AcDbPolyline
 90
        2
 70
     0
 43
0.0
 10
41.70212108511802
 20
-23.11930016268371
 10
52.46143494510818
 20
-23.11930016268371
  0
MTEXT
  5
ABD18
330
1F
100
AcDbEntity
  8
HI Text
100
AcDbMText
 10
44.83658030119963
 20
-22.56115396164613
 30
0.0
 40
0.7499999999999999
 41
0.0
 46
0.0
 71
     6
 72
     1
  1
{\fArial|b0|i0|c0|p34;LEGEND:}
  7
Hunter
 73
     1
 44
1.0
  0
MTEXT
  5
ABD19
330
1F
100
AcDbEntity
  8
HI Text
100
AcDbMText
 10
43.08842247311996
 20
-23.52293229269936
 30
0.0
 40
0.5
 41
14.36766712141882
 46
0.6558663028649381
 71
     1
 72
     1
  1
\A1;{\fArial|b0|i0|c0|p34;PROFESSIONAL LANDSCAPE DRIPLINE PER PLAN}
  7
Hunter
 73
     1
 44
1.0
  0
CIRCLE
  5
ABD1B
330
1F
100
AcDbEntity
  8
HI Text
100
AcDbCircle
 10
42.46761374038337
 20
-27.69681527902113
 30
0.0
 40
0.511352622321557
  0
MTEXT
  5
ABD1C
330
1F
100
AcDbEntity
  8
HI Text
100
AcDbMText
 10
42.53830967646567
 20
-27.66646177736685
 30
0.0
 40
0.5
 41
0.2318212824010922
 46
0.0
 71
     6
 72
     1
  1
{\fArial|b0|i0|c0|p34;3}
  7
Hunter
 73
     1
 44
1.0
  0
CIRCLE
  5
ABD24
330
1F
100
AcDbEntity
  8
HI Text
100
AcDbCircle
 10
42.46761374038337
 20
-33.46466159099182
 30
0.0
 40
0.511352622321557
  0
MTEXT
  5
ABD25
330
1F
100
AcDbEntity
  8
HI Text
100
AcDbMText
 10
42.53830967646567
 20
-33.43430808933754
 30
0.0
 40
0.5
 41
0.2318212824010922
 46
0.0
 71
     6
 72
     1
  1
{\fArial|b0|i0|c0|p34;6}
  7
Hunter
 73
     1
 44
1.0
  0
MTEXT
  5
ABD26
330
1F
100
AcDbEntity
  8
HI Text
100
AcDbMText
 10
43.08843564909444
 20
-31.67419682356492
 30
0.0
 40
0.5
 41
14.36766712141882
 46
0.0
 71
     4
 72
     1
  1
\A1;{\fArial|b0|i0|c0|p34;PLD RISER -  LENGTH AS REQUIRED}
  7
Hunter
 73
     1
 44
1.0
  0
MTEXT
  5
ABD2F
330
1F
100
AcDbEntity
  8
HI Text
100
AcDbMText
 10
43.08843564909444
 20
-25.42723671646605
 30
0.0
 40
0.5
 41
14.36766712141882
 46
0.0
 71
     1
 72
     1
  1
\A1;{\fArial|b0|i0|c0|p34;PLD OR PLD-LOC FITTING}
  7
Hunter
 73
     1
 44
1.0
  0
MTEXT
  5
ABD30
330
1F
100
AcDbEntity
  8
HI Text
100
AcDbMText
 10
43.08843564909444
 20
-27.41833981037642
 30
0.0
 40
0.5
 41
14.36766712141882
 46
0.0
 71
     1
 72
     1
  1
\A1;{\fArial|b0|i0|c0|p34;FINISHED GRADE}
  7
Hunter
 73
     1
 44
1.0
  0
CIRCLE
  5
ABD3A
330
1F
100
AcDbEntity
  8
HI Text
100
AcDbCircle
 10
42.46761374038337
 20
-31.67575766370484
 30
0.0
 40
0.511352622321557
  0
MTEXT
  5
ABD3B
330
1F
100
AcDbEntity
  8
HI Text
100
AcDbMText
 10
42.53830967646567
 20
-31.64540416205056
 30
0.0
 40
0.5
 41
0.2318212824010949
 46
0.0
 71
     6
 72
     1
  1
{\fArial|b0|i0|c0|p34;5}
  7
Hunter
 73
     1
 44
1.0
  0
MTEXT
  5
ABD3C
330
1F
100
AcDbEntity
  8
HI Text
100
AcDbMText
 10
43.08843564909444
 20
-29.57361672749282
 30
0.0
 40
0.5
 41
14.36766712141882
 46
0.0
 71
     1
 72
     1
  1
\A1;{\fArial|b0|i0|c0|p34;MULCH (AS SPECIFIED)}
  7
Hunter
 73
     1
 44
1.0
  0
CIRCLE
  5
ABE7F
330
1F
100
AcDbEntity
  8
HI Text
100
AcDbCircle
 10
42.46761374038337
 20
-35.48806026062564
 30
0.0
 40
0.511352622321557
  0
MTEXT
  5
ABE80
330
1F
100
AcDbEntity
  8
HI Text
100
AcDbMText
 10
42.53830967646567
 20
-35.45770675897137
 30
0.0
 40
0.5
 41
0.2318212824010922
 46
0.0
 71
     6
 72
     1
  1
{\fArial|b0|i0|c0|p34;7}
  7
Hunter
 73
     1
 44
1.0
  0
MTEXT
  5
ABE81
330
1F
100
AcDbEntity
  8
HI Text
100
AcDbMText
 10
43.08843564909444
 20
-33.1798757036805
 30
0.0
 40
0.5
 41
14.36766712141882
 46
0.0
 71
     1
 72
     1
  1
\A1;{\fArial|b0|i0|c0|p34;SOIL}
  7
Hunter
 73
     1
 44
1.0
  0
LINE
  5
ADCF6
330
1F
100
AcDbEntity
  8
HI Detail 3
100
AcDbLine
 10
25.99298121454816
 20
-40.32848480807508
 30
0.0
 11
23.91761949411792
 21
-40.32848480807508
 31
0.0
  0
LINE
  5
ADCF7
330
1F
100
AcDbEntity
  8
HI Detail 3
100
AcDbLine
 10
26.02114121454823
 20
-40.35664480807503
 30
0.0
 11
26.02114121454823
 21
-41.58377445013584
 31
0.0
  0
LINE
  5
ADCF8
330
1F
100
AcDbEntity
  8
HI Detail 3
100
AcDbLine
 10
23.88945949411785
 20
-41.65937370243697
 30
0.0
 11
23.88945949411785
 21
-40.35664480807503
 31
0.0
  0
ARC
  5
ADCF9
330
1F
100
AcDbEntity
  8
HI Detail 3
100
AcDbCircle
 10
23.91761949411792
 20
-40.35664480807503
 30
0.0
 40
0.02816
100
AcDbArc
 50
90.0
 51
180.0
  0
ARC
  5
ADCFA
330
1F
100
AcDbEntity
  8
HI Detail 3
100
AcDbCircle
 10
25.99298121454816
 20
-40.35664480807503
 30
0.0
 40
0.02816
100
AcDbArc
 50
0.0
 51
90.0
  0
LINE
  5
ADD5E
330
1F
100
AcDbEntity
  8
HI Deatil 2
100
AcDbLine
 10
23.03878544513628
 20
-32.8471627499998
 30
0.0
 11
20.01535048059123
 21
-32.8471627499998
 31
0.0
  0
LINE
  5
ADD63
330
1F
100
AcDbEntity
  8
HI Deatil 2
100
AcDbLine
 10
23.04291987496173
 20
-34.05031081098665
 30
0.0
 11
20.01535048059127
 21
-34.05031081098665
 31
0.0
  0
CIRCLE
  5
ADD6B
330
1F
100
AcDbEntity
  8
HI Detail 3
100
AcDbCircle
 10
24.99754035433528
 20
-42.81262072205357
 30
0.0
 40
1.599319192980174
  0
CIRCLE
  5
ADD6C
330
1F
100
AcDbEntity
  8
HI Detail 3
100
AcDbCircle
 10
24.99754035433528
 20
-42.81262072205357
 30
0.0
 40
1.326917713364312
  0
LINE
  5
ADE10
330
1F
100
AcDbEntity
  8
HI Deatil 2
100
AcDbLine
 10
35.31395600200529
 20
-28.60790607488036
 30
0.0
 11
14.64905370434026
 21
-28.60790607488036
 31
0.0
  0
MTEXT
  5
ADE16
330
1F
100
AcDbEntity
  8
HI Text
100
AcDbMText
 10
38.74417391197975
 20
-22.80724634968797
 30
0.0
 40
0.5
 41
0.0
 46
0.0
 71
     6
 72
     1
  1
{\fArial|b0|i0|c0|p34;1}
  7
Hunter
 73
     1
 44
1.0
  0
LEADER
  5
ADE17
330
1F
100
AcDbEntity
  8
HI Text
100
AcDbLeader
  3
LandMatters
 76
     3
 10
21.52706796286375
 20
-32.8471627499998
 30
0.0
 10
37.55440755314513
 20
-22.83759985134222
 30
0.0
 10
38.14984294187665
 20
-22.83759985134226
 30
0.0
211
-0.0000000000000002
221
-1.0
231
0.0
1001
ACAD
1000
DSTYLE
1002
{
1070
    41
1040
0.5
1002
}
  0
CIRCLE
  5
ADE18
330
1F
100
AcDbEntity
  8
HI Text
100
AcDbCircle
 10
38.66119556419821
 20
-22.83759985134225
 30
0.0
 40
0.511352622321557
  0
MTEXT
  5
ADE19
330
1F
100
AcDbEntity
  8
HI Text
100
AcDbMText
 10
38.75946425302121
 20
-23.83283698894971
 30
0.0
 40
0.5
 41
0.0
 46
0.0
 71
     6
 72
     1
  1
{\fArial|b0|i0|c0|p34;2}
  7
Hunter
 73
     1
 44
1.0
  0
LEADER
  5
ADE1A
330
1F
100
AcDbEntity
  8
HI Text
100
AcDbLeader
  3
LandMatters
 76
     3
 10
25.18137815866876
 20
-32.83264383629115
 30
0.0
 10
37.5432133808104
 20
-23.86319049060396
 30
0.0
 10
38.16513328291812
 20
-23.863190490604
 30
0.0
211
-0.0000000000000002
221
-1.0
231
0.0
1001
ACAD
1000
DSTYLE
1002
{
1070
    41
1040
0.5
1002
}
  0
CIRCLE
  5
ADE1B
330
1F
100
AcDbEntity
  8
HI Text
100
AcDbCircle
 10
38.67648590523968
 20
-23.86319049060398
 30
0.0
 40
0.511352622321557
  0
MTEXT
  5
ADE1C
330
1F
100
AcDbEntity
  8
HI Text
100
AcDbMText
 10
38.77475459406268
 20
-24.85842762821145
 30
0.0
 40
0.5
 41
0.5059889325313582
 46
0.0
 71
     6
 72
     1
  1
{\fArial|b0|i0|c0|p34;3}
  7
Hunter
 73
     1
 44
1.0
  0
CIRCLE
  5
ADE1D
330
1F
100
AcDbEntity
  8
HI Text
100
AcDbCircle
 10
38.69177624628115
 20
-24.88878112986572
 30
0.0
 40
0.511352622321557
  0
LEADER
  5
ADE1E
330
1F
100
AcDbEntity
  8
HI Text
100
AcDbLeader
  3
LandMatters
 76
     3
 10
34.44148604675724
 20
-28.60790607488036
 30
0.0
 10
37.55850372185186
 20
-24.88878112986569
 30
0.0
 10
38.18042362395959
 20
-24.88878112986572
 30
0.0
211
-0.0000000000000002
221
-1.0
231
0.0
1001
ACAD
1000
DSTYLE
1002
{
1070
    41
1040
0.5
1002
}
  0
CIRCLE
  5
ADE22
330
1F
100
AcDbEntity
  8
HI Text
100
AcDbCircle
 10
38.64590522315675
 20
-33.77194663864685
 30
0.0
 40
0.511352622321557
  0
LEADER
  5
ADE23
330
1F
100
AcDbEntity
  8
HI Text
100
AcDbLeader
  3
LandMatters
 76
     3
 10
32.96418858462015
 20
-32.03766161531144
 30
0.0
 10
37.55440755314513
 20
-33.77194663864683
 30
0.0
 10
38.13455260083518
 20
-33.77194663864687
 30
0.0
211
-0.0000000000000002
221
-1.0
231
0.0
1001
ACAD
1000
DSTYLE
1002
{
1070
    41
1040
0.5
1002
}
  0
MTEXT
  5
ADE24
330
1F
100
AcDbEntity
  8
HI Text
100
AcDbMText
 10
38.72888357093829
 20
-33.74159313699258
 30
0.0
 40
0.5
 41
0.0
 46
0.0
 71
     6
 72
     1
  1
{\fArial|b0|i0|c0|p34;4}
  7
Hunter
 73
     1
 44
1.0
  0
MTEXT
  5
ADE25
330
1F
100
AcDbEntity
  8
HI Text
100
AcDbMText
 10
38.74417391197975
 20
-34.76718377625431
 30
0.0
 40
0.5
 41
0.0
 46
0.0
 71
     6
 72
     1
  1
{\fArial|b0|i0|c0|p34;5}
  7
Hunter
 73
     1
 44
1.0
  0
LEADER
  5
ADE26
330
1F
100
AcDbEntity
  8
HI Text
100
AcDbLeader
  3
LandMatters
 76
     3
 10
25.5825707170354
 20
-35.6913152749633
 30
0.0
 10
37.55440755314513
 20
-34.79753727790857
 30
0.0
 10
38.14984294187665
 20
-34.79753727790861
 30
0.0
211
-0.0000000000000002
221
-1.0
231
0.0
1001
ACAD
1000
DSTYLE
1002
{
1070
    41
1040
0.5
1002
}
  0
CIRCLE
  5
ADE27
330
1F
100
AcDbEntity
  8
HI Text
100
AcDbCircle
 10
38.66119556419821
 20
-34.79753727790859
 30
0.0
 40
0.511352622321557
  0
MTEXT
  5
ADE28
330
1F
100
AcDbEntity
  8
HI Text
100
AcDbMText
 10
38.75946425302121
 20
-35.79277441551605
 30
0.0
 40
0.5
 41
0.0
 46
0.0
 71
     6
 72
     1
  1
{\fArial|b0|i0|c0|p34;6}
  7
Hunter
 73
     1
 44
1.0
  0
LEADER
  5
ADE29
330
1F
100
AcDbEntity
  8
HI Text
100
AcDbLeader
  3
LandMatters
 76
     3
 10
31.82400679413229
 20
-36.96184445039686
 30
0.0
 10
37.5432133808104
 20
-35.8231279171703
 30
0.0
 10
38.16513328291812
 20
-35.82312791717034
 30
0.0
211
-0.0000000000000002
221
-1.0
231
0.0
1001
ACAD
1000
DSTYLE
1002
{
1070
    41
1040
0.5
1002
}
  0
CIRCLE
  5
ADE2A
330
1F
100
AcDbEntity
  8
HI Text
100
AcDbCircle
 10
38.67648590523968
 20
-35.82312791717033
 30
0.0
 40
0.511352622321557
  0
MTEXT
  5
ADE2B
330
1F
100
AcDbEntity
  8
HI Text
100
AcDbMText
 10
38.77475459406268
 20
-36.81836505477779
 30
0.0
 40
0.5
 41
0.5059889325313582
 46
0.0
 71
     6
 72
     1
  1
{\fArial|b0|i0|c0|p34;7}
  7
Hunter
 73
     1
 44
1.0
  0
CIRCLE
  5
ADE2C
330
1F
100
AcDbEntity
  8
HI Text
100
AcDbCircle
 10
38.69177624628115
 20
-36.84871855643206
 30
0.0
 40
0.511352622321557
  0
LEADER
  5
ADE2D
330
1F
100
AcDbEntity
  8
HI Text
100
AcDbLeader
  3
LandMatters
 76
     3
 10
25.93298238455841
 20
-39.55335554375674
 30
0.0
 10
37.55850372185186
 20
-36.84871855643203
 30
0.0
 10
38.18042362395959
 20
-36.84871855643206
 30
0.0
211
-0.0000000000000002
221
-1.0
231
0.0
1001
ACAD
1000
DSTYLE
1002
{
1070
    41
1040
0.5
1002
}
  0
MTEXT
  5
ADE2E
330
1F
100
AcDbEntity
  8
HI Text
100
AcDbMText
 10
38.70706658732261
 20
-37.8743091956938
 30
0.0
 40
0.5
 41
0.5059889325313582
 46
0.0
 71
     5
 72
     1
  1
{\fArial|b0|i0|c0|p34;8}
  7
Hunter
 73
     1
 44
1.0
  0
CIRCLE
  5
ADE2F
330
1F
100
AcDbEntity
  8
HI Text
100
AcDbCircle
 10
38.70706658732261
 20
-37.8743091956938
 30
0.0
 40
0.511352622321557
  0
LEADER
  5
ADE30
330
1F
100
AcDbEntity
  8
HI Text
100
AcDbLeader
  3
LandMatters
 76
     3
 10
26.46914812505943
 20
-42.18636801732563
 30
0.0
 10
37.57379406289333
 20
-37.87430919569376
 30
0.0
 10
38.19571396500105
 20
-37.8743091956938
 30
0.0
211
-0.0000000000000002
221
-1.0
231
0.0
1001
ACAD
1000
DSTYLE
1002
{
1070
    41
1040
0.5
1002
}
  0
CIRCLE
  5
ADE34
330
1F
100
AcDbEntity
  8
HI Text
100
AcDbCircle
 10
42.46761374038337
 20
-37.65390152543383
 30
0.0
 40
0.511352622321557
  0
MTEXT
  5
ADE35
330
1F
100
AcDbEntity
  8
HI Text
100
AcDbMText
 10
42.46761374038337
 20
-37.65390152543383
 30
0.0
 40
0.5
 41
0.5059889325313582
 46
0.0
 71
     5
 72
     1
  1
{\fArial|b0|i0|c0|p34;8}
  7
Hunter
 73
     1
 44
1.0
  0
MTEXT
  5
ADE36
330
1F
100
AcDbEntity
  8
HI Text
100
AcDbMText
 10
43.08843564909444
 20
-37.37542605678912
 30
0.0
 40
0.5
 41
14.36766712141882
 46
0.0
 71
     1
 72
     1
  1
\A1;{\fArial|b0|i0|c0|p34;PVC SUPPLY HEADER - SIZE PER PLAN}
  7
Hunter
 73
     1
 44
1.0
  0
LWPOLYLINE
  5
ADFBD
330
1F
100
AcDbEntity
  8
HI Deatil 1
100
AcDbPolyline
 90
        2
 70
     0
 43
0.0
 10
14.64905370434026
 20
-27.3359382879944
 10
14.64905370434025
 20
-32.68532104639877
  0
LWPOLYLINE
  5
ADFBF
330
1F
100
AcDbEntity
  8
HI Deatil 1
100
AcDbPolyline
 90
        2
 70
     0
 43
0.0
 10
13.50369470925088
 20
-33.96059309627007
 10
14.64905370434025
 20
-32.99952278592499
  0
LWPOLYLINE
  5
ADFC0
330
1F
100
AcDbEntity
  8
HI Deatil 1
100
AcDbPolyline
 90
        2
 70
     0
 43
0.0
 10
13.50369470925088
 20
-33.96059309627007
 10
13.92727588431506
 20
-34.31601990404006
  0
LWPOLYLINE
  5
ADFC1
330
1F
100
AcDbEntity
  8
HI Deatil 1
100
AcDbPolyline
 90
        2
 70
     0
 43
0.0
 10
15.79441269942961
 20
-35.8827337169602
 10
14.64905370434023
 20
-36.84380402730527
  0
LWPOLYLINE
  5
ADFC2
330
1F
100
AcDbEntity
  8
HI Deatil 1
100
AcDbPolyline
 90
        2
 70
     0
 43
0.0
 10
15.79441269942961
 20
-35.8827337169602
 10
14.64905370434024
 20
-34.92166340661513
  0
LWPOLYLINE
  5
ADFC5
330
1F
100
AcDbEntity
  8
HI Deatil 1
100
AcDbPolyline
 90
        2
 70
     0
 43
0.0
 10
34.16859700691591
 20
-33.96059309627007
 10
35.31395600200528
 20
-32.99952278592499
  0
LWPOLYLINE
  5
ADFC6
330
1F
100
AcDbEntity
  8
HI Deatil 1
100
AcDbPolyline
 90
        2
 70
     0
 43
0.0
 10
34.16859700691591
 20
-33.96059309627007
 10
35.31395600200527
 20
-34.92166340661513
  0
LWPOLYLINE
  5
ADFC7
330
1F
100
AcDbEntity
  8
HI Deatil 1
100
AcDbPolyline
 90
        2
 70
     0
 43
0.0
 10
36.45931499709463
 20
-35.8827337169602
 10
35.31395600200526
 20
-36.84380402730527
  0
LWPOLYLINE
  5
ADFC8
330
1F
100
AcDbEntity
  8
HI Deatil 1
100
AcDbPolyline
 90
        2
 70
     0
 43
0.0
 10
36.45931499709463
 20
-35.8827337169602
 10
35.31395600200527
 20
-34.92166340661513
  0
LWPOLYLINE
  5
ADFDD
330
1F
100
AcDbEntity
  8
HI Dimensions
100
AcDbPolyline
 90
        2
 70
     0
 43
0.075
 10
10.59519030787525
 20
-28.35790607488036
 10
11.09519030787525
 20
-28.85790607488036
  0
LINE
  5
ADFDF
330
1F
100
AcDbEntity
  8
HI Dimensions
100
AcDbLine
 10
10.84519030787525
 20
-28.19955984617056
 30
0.0
 11
10.84519030787525
 21
-30.94294891081782
 31
0.0
  0
MTEXT
  5
ADFE0
102
{ACAD_XDICTIONARY
360
ADFE1
102
}
330
1F
100
AcDbEntity
  8
HI Text
100
AcDbMText
 10
10.84519030787525
 20
-31.32332315505295
 30
0.0
 40
0.5
 41
9.609171224198007
 46
0.0
 71
     5
 72
     5
  1
DEPTH PER PLAN
  7
DIMS
 73
     1
 44
1.0
1001
ACAD
1000
ACAD_MTEXT_COLUMN_INFO_BEGIN
1070
    75
1070
     2
1070
    79
1070
     0
1070
    76
1070
     1
1070
    78
1070
     0
1070
    48
1040
9.609171224198007
1070
    49
1040
60.5201024220279
1070
    50
1070
     1
1040
0.0
1000
ACAD_MTEXT_COLUMN_INFO_END
  0
LINE
  5
ADFE2
330
1F
100
AcDbEntity
  8
HI Dimensions
100
AcDbLine
 10
10.28185883579855
 20
-28.60790607488036
 30
0.0
 11
14.43114050019691
 21
-28.60790607488036
 31
0.0
  0
LWPOLYLINE
  5
ADFE4
330
1F
100
AcDbEntity
  8
HI Dimensions
100
AcDbPolyline
 90
        2
 70
     0
 43
0.075
 10
10.59519030787525
 20
-33.80199217620748
 10
11.09519030787525
 20
-34.30199217620748
  0
LINE
  5
ADFE5
330
1F
100
AcDbEntity
  8
HI Dimensions
100
AcDbLine
 10
10.84519030787525
 20
-34.51312336720164
 30
0.0
 11
10.84519030787525
 21
-31.73344588164483
 31
0.0
  0
LINE
  5
ADFE6
330
1F
100
AcDbEntity
  8
HI Dimensions
100
AcDbLine
 10
10.28185883579855
 20
-34.05199217620748
 30
0.0
 11
13.34938365877775
 21
-34.05199217620748
 31
0.0
  0
LWPOLYLINE
  5
ADFE9
330
1F
100
AcDbEntity
  8
HI Detail 3
100
AcDbPolyline
 90
        2
 70
     0
 43
0.0
 10
27.04684811058616
 20
-36.41676373079141
 10
25.94269875833106
 20
-36.4167637307914
  0
LWPOLYLINE
  5
ADFEA
330
1F
100
AcDbEntity
  8
HI Detail 3
100
AcDbPolyline
 90
        2
 70
     0
 43
0.0
 10
24.02055813764093
 20
-36.4167637307914
 10
22.84177158648515
 20
-36.4167637307914
  0
LWPOLYLINE
  5
ADFEB
330
1F
100
AcDbEntity
  8
HI Detail 3
100
AcDbPolyline
 90
        2
 70
     0
 43
0.0
 10
25.46216360315852
 20
-35.84408423324672
 10
25.94269875833106
 20
-36.41676373079141
  0
LWPOLYLINE
  5
ADFEC
330
1F
100
AcDbEntity
  8
HI Detail 3
100
AcDbPolyline
 90
        2
 70
     0
 43
0.0
 10
25.46216360315852
 20
-35.84408423324672
 10
24.98162844798599
 20
-36.4167637307914
  0
LWPOLYLINE
  5
ADFED
330
1F
100
AcDbEntity
  8
HI Detail 3
100
AcDbPolyline
 90
        2
 70
     0
 43
0.0
 10
24.50109329281346
 20
-36.98944322833609
 10
24.02055813764092
 20
-36.41676373079139
  0
LWPOLYLINE
  5
ADFEE
330
1F
100
AcDbEntity
  8
HI Detail 3
100
AcDbPolyline
 90
        2
 70
     0
 43
0.0
 10
24.50109329281346
 20
-36.98944322833609
 10
24.98162844798599
 20
-36.4167637307914
  0
LWPOLYLINE
  5
ADFF0
330
1F
100
AcDbEntity
  8
HI Detail 3
100
AcDbPolyline
 90
        2
 70
     0
 43
0.0
 10
27.04684811058616
 20
-37.01974082119747
 10
25.94269875833106
 20
-37.01974082119746
  0
LWPOLYLINE
  5
ADFF1
330
1F
100
AcDbEntity
  8
HI Detail 3
100
AcDbPolyline
 90
        2
 70
     0
 43
0.0
 10
24.02055813764093
 20
-37.01974082119746
 10
22.84177158648515
 20
-37.01974082119746
  0
LWPOLYLINE
  5
ADFF2
330
1F
100
AcDbEntity
  8
HI Detail 3
100
AcDbPolyline
 90
        2
 70
     0
 43
0.0
 10
25.46216360315852
 20
-36.44706132365278
 10
25.94269875833106
 20
-37.01974082119747
  0
LWPOLYLINE
  5
ADFF3
330
1F
100
AcDbEntity
  8
HI Detail 3
100
AcDbPolyline
 90
        2
 70
     0
 43
0.0
 10
25.46216360315852
 20
-36.44706132365278
 10
24.98162844798599
 20
-37.01974082119746
  0
LWPOLYLINE
  5
ADFF4
330
1F
100
AcDbEntity
  8
HI Detail 3
100
AcDbPolyline
 90
        2
 70
     0
 43
0.0
 10
24.50109329281346
 20
-37.59242031874214
 10
24.02055813764092
 20
-37.01974082119745
  0
LWPOLYLINE
  5
ADFF5
330
1F
100
AcDbEntity
  8
HI Detail 3
100
AcDbPolyline
 90
        2
 70
     0
 43
0.0
 10
24.50109329281346
 20
-37.59242031874214
 10
24.98162844798599
 20
-37.01974082119746
  0
LWPOLYLINE
  5
ADFF6
330
1F
100
AcDbEntity
  8
HI Deatil 1
100
AcDbPolyline
 90
        2
 70
     0
 43
0.0
 10
14.64905370434023
 20
-36.84380402730527
 10
14.64905370434022
 20
-42.50738852523586
  0
LWPOLYLINE
  5
ADFF7
330
1F
100
AcDbEntity
  8
HI Deatil 1
100
AcDbPolyline
 90
        2
 70
     0
 43
0.0
 10
35.31395600200529
 20
-27.3359382879944
 10
35.31395600200528
 20
-32.99952278592499
  0
LWPOLYLINE
  5
ADFF8
330
1F
100
AcDbEntity
  8
HI Deatil 1
100
AcDbPolyline
 90
        2
 70
     0
 43
0.0
 10
35.31395600200526
 20
-36.84380402730527
 10
35.31395600200525
 20
-42.50738852523586
  0
HATCH
  5
AE0D0
330
1F
100
AcDbEntity
  8
HI Text
100
AcDbHatch
 10
0.0
 20
0.0
 30
0.0
210
0.0
220
0.0
230
1.0
  2
SOLID
 70
     1
 71
     1
 91
       10
 92
        1
 93
        9
 72
     1
 10
13.21778204662081
 20
-49.41726327181392
 11
13.49821747942676
 21
-49.17036961945907
 72
     1
 10
13.49821747942676
 20
-49.17036961945907
 11
13.49821747942676
 21
-49.36335988889322
 72
     1
 10
13.49821747942676
 20
-49.36335988889322
 11
13.58191838458308
 21
-49.36335988889322
 72
     1
 10
13.58191838458308
 20
-49.36335988889322
 11
13.58191838458314
 21
-49.41726327181392
 72
     1
 10
13.58191838458314
 20
-49.41726327181392
 11
13.49821747942676
 21
-49.41726327181392
 72
     1
 10
13.49821747942676
 20
-49.41726327181392
 11
13.49821747942676
 21
-49.85451680035078
 72
     1
 10
13.49821747942676
 20
-49.85451680035078
 11
13.28963482377711
 21
-49.85451680035078
 72
     1
 10
13.28963482377711
 20
-49.85451680035078
 11
13.28963482377711
 21
-49.41726327181392
 72
     1
 10
13.28963482377711
 20
-49.41726327181392
 11
13.21778204662081
 21
-49.41726327181392
 97
        1
330
A06C5
 92
        1
 93
        4
 72
     1
 10
12.9871344534109
 20
-49.85451680035078
 11
12.77855179776128
 21
-49.85451680035078
 72
     1
 10
12.77855179776128
 20
-49.85451680035078
 11
12.77855179776128
 21
-49.36335988889322
 72
     1
 10
12.77855179776128
 20
-49.36335988889322
 11
12.9871344534109
 21
-49.36335988889322
 72
     1
 10
12.9871344534109
 20
-49.36335988889322
 11
12.9871344534109
 21
-49.85451680035078
 97
        1
330
A06C4
 92
        1
 93
       12
 72
     1
 10
11.96589402738178
 20
-49.50899946386529
 11
11.96589402738178
 21
-49.85451680035078
 72
     1
 10
11.96589402738178
 20
-49.85451680035078
 11
12.22045082574263
 21
-49.85451680035078
 72
     1
 10
12.22045082574263
 20
-49.85451680035078
 11
12.22045082574263
 21
-49.1641517346211
 72
     1
 10
12.22045082574263
 20
-49.1641517346211
 11
11.96589402738178
 21
-49.1641517346211
 72
     1
 10
11.96589402738178
 20
-49.1641517346211
 11
11.96589402738184
 21
-49.44505197232587
 72
     1
 10
11.96589402738184
 20
-49.44505197232587
 11
11.89782284570927
 21
-49.44505197232587
 72
     1
 10
11.89782284570927
 20
-49.44505197232587
 11
11.89782284570944
 21
-49.1641517346211
 72
     1
 10
11.89782284570944
 20
-49.1641517346211
 11
11.64326604734842
 21
-49.1641517346211
 72
     1
 10
11.64326604734842
 20
-49.1641517346211
 11
11.64326604734842
 21
-49.85451680035078
 72
     1
 10
11.64326604734842
 20
-49.85451680035078
 11
11.89782284570936
 21
-49.85451680035078
 72
     1
 10
11.89782284570936
 20
-49.85451680035078
 11
11.89782284570936
 21
-49.50899946386529
 72
     1
 10
11.89782284570936
 20
-49.50899946386529
 11
11.96589402738178
 21
-49.50899946386529
 97
        1
330
A06C3
 92
        1
 93
        6
 72
     2
 10
13.78154542646731
 20
-49.49844943609512
 40
0.3557288469148716
 50
269.999999999855
 51
311.0226094260925
 73
     1
 72
     1
 10
14.01503047162058
 20
-49.76682929043811
 11
14.01503047161069
 21
-49.70175337007184
 72
     2
 10
13.78154542645696
 20
-49.47099553920776
 40
0.3282749500274638
 50
44.66341740663149
 51
94.35762720154725
 73
     0
 72
     1
 10
13.75660255672975
 20
-49.79832151750051
 11
13.75660255672912
 21
-49.36369840623405
 72
     2
 10
13.76949249612388
 20
-49.60893834462199
 40
0.2455784557287565
 50
93.00872752319534
 51
266.9912724769641
 73
     1
 72
     1
 10
13.7566025567298
 20
-49.85417828300997
 11
13.78154542646641
 21
-49.85417828301
 97
        1
330
A06C2
 92
        1
 93
        4
 72
     1
 10
14.04782524548213
 20
-49.85451680034346
 11
14.04782524548213
 21
-49.3633598888859
 72
     1
 10
14.04782524548213
 20
-49.3633598888859
 11
14.25640790113178
 21
-49.3633598888859
 72
     1
 10
14.25640790113178
 20
-49.3633598888859
 11
14.25640790113178
 21
-49.85451680034346
 72
     1
 10
14.25640790113178
 20
-49.85451680034346
 11
14.04782524548213
 21
-49.85451680034346
 97
        1
330
A06C1
 92
        1
 93
        5
 72
     1
 10
13.03411300698403
 20
-49.36335988889322
 11
13.03411300698403
 21
-49.85451680035078
 72
     1
 10
13.03411300698403
 20
-49.85451680035078
 11
13.24269566263365
 21
-49.85451680035078
 72
     1
 10
13.24269566263365
 20
-49.85451680035078
 11
13.24269566263365
 21
-49.51832907198206
 72
     2
 10
13.08772647954484
 20
-49.51832907198206
 40
0.1549691830888094
 50
0.0
 51
90.0
 73
     1
 72
     1
 10
13.08772647954484
 20
-49.36335988889325
 11
13.03411300698403
 21
-49.36335988889322
 97
        1
330
A06C0
 92
        1
 93
        5
 72
     1
 10
12.52299058853851
 20
-49.36335988889322
 11
12.73157324418819
 21
-49.36335988889322
 72
     1
 10
12.73157324418819
 20
-49.36335988889322
 11
12.73157324418819
 21
-49.69954761726191
 72
     2
 10
12.57660406109933
 20
-49.69954761726188
 40
0.1549691830888591
 50
0.0000000000131293
 51
90.00000000001312
 73
     0
 72
     1
 10
12.57660406109929
 20
-49.85451680035073
 11
12.52299058853851
 21
-49.85451680035078
 72
     1
 10
12.52299058853851
 20
-49.85451680035078
 11
12.52299058853851
 21
-49.36335988889322
 97
        1
330
A06BF
 92
        1
 93
        5
 72
     1
 10
12.42239856240457
 20
-49.85451680035078
 11
12.47601203496535
 21
-49.85451680035078
 72
     1
 10
12.47601203496535
 20
-49.85451680035078
 11
12.47601203496535
 21
-49.36335988889322
 72
     1
 10
12.47601203496535
 20
-49.36335988889322
 11
12.26742937931576
 21
-49.36335988889322
 72
     1
 10
12.26742937931576
 20
-49.36335988889322
 11
12.26742937931576
 21
-49.69954761726191
 72
     2
 10
12.4223985624046
 20
-49.69954761726194
 40
0.1549691830888378
 50
179.9999999999895
 51
269.9999999999895
 73
     1
 97
        1
330
A06BE
 92
        1
 93
        5
 72
     1
 10
14.02435566490735
 20
-49.60893834462168
 11
14.02435566491468
 21
-49.55098789851589
 72
     2
 10
13.81885134510126
 20
-49.56884371189433
 40
0.206278587190675
 50
4.965831443762698
 51
83.9913280435104
 73
     1
 72
     1
 10
13.84044437867479
 20
-49.36369840623399
 11
13.80648829620296
 21
-49.36369840622048
 72
     1
 10
13.80648829620296
 20
-49.36369840622048
 11
13.80648829620296
 21
-49.60893834462168
 72
     1
 10
13.80648829620296
 20
-49.60893834462168
 11
14.02435566490735
 21
-49.60893834462168
 97
        1
330
A06BD
 92
        1
 93
        1
 72
     2
 10
14.37948155883956
 20
-49.46296396602199
 40
0.0996040771360683
 50
0.0
 51
360.0
 73
     1
 97
        1
330
A06BC
 75
     1
 76
     1
 98
        1
 10
0.0
 20
0.0
450
        0
451
        0
460
0.0
461
0.0
452
        0
462
1.0
453
        2
463
0.0
 63
     5
421
      255
463
1.0
 63
     2
421
 16776960
470
LINEAR
1001
GradientColor1ACI
1070
     5
1001
GradientColor2ACI
1070
     2
1001
ACAD
1010
11.64326604734842
1020
-49.85451680035078
1030
0.0
  0
CIRCLE
  5
AE29C
330
1F
100
AcDbEntity
  8
HI Text
100
AcDbCircle
 10
42.46761374038337
 20
-29.85970082194549
 30
0.0
 40
0.511352622321557
  0
MTEXT
  5
AE29D
330
1F
100
AcDbEntity
  8
HI Text
100
AcDbMText
 10
42.53830967646567
 20
-29.82934732029121
 30
0.0
 40
0.5
 41
0.2318212824010946
 46
0.0
 71
     6
 72
     1
  1
{\fArial|b0|i0|c0|p34;4}
  7
Hunter
 73
     1
 44
1.0
  0
INSERT
  5
AE3DA
330
1F
100
AcDbEntity
  8
0
100
AcDbBlockReference
  2
break
 10
0.0
 20
0.0
 30
0.0
  0
LWPOLYLINE
  5
AE3DF
330
1F
100
AcDbEntity
  8
HI Deatil 1
100
AcDbPolyline
 90
        2
 70
     0
 43
0.0
 10
13.92727588431506
 20
-34.31601990404006
 10
14.64905370434024
 20
-34.92166340661513
  0
LWPOLYLINE
  5
AE3E2
330
1F
100
AcDbEntity
  8
HI Deatil 1
100
AcDbPolyline
 90
        2
 70
     0
 43
0.0
 10
14.64905370434025
 20
-32.68532104639877
 10
14.64905370434025
 20
-32.99952278592499
  0
LINE
  5
AE498
330
1F
100
AcDbEntity
  8
HI Deatil 2
100
AcDbLine
 10
18.41207675964463
 20
-32.8471627499998
 30
0.0
 11
19.64891750518934
 21
-32.8471627499998
 31
0.0
  0
LWPOLYLINE
  5
AE4BC
330
1F
100
AcDbEntity
  8
HI Deatil 2
100
AcDbPolyline
 90
        2
 70
     0
 43
0.0
 10
18.41207675964463
 20
-32.8471627499998
 10
19.64891750518934
 20
-32.8471627499998
  0
LWPOLYLINE
  5
AE4BD
330
1F
100
AcDbEntity
  8
HI Deatil 2
100
AcDbPolyline
 90
        2
 70
     0
 43
0.0
 10
18.41207675964466
 20
-34.05031081098665
 10
19.64891750518937
 20
-34.05031081098665
  0
LWPOLYLINE
  5
AE4BE
330
1F
100
AcDbEntity
  8
HI Deatil 2
100
AcDbPolyline
 90
        2
 70
     0
 43
0.0
 10
18.04564378424277
 20
-32.8471627499998
 10
18.14245388363022
 20
-32.76777177535905
  0
LWPOLYLINE
  5
AE4BF
330
1F
100
AcDbEntity
  8
HI Deatil 2
100
AcDbPolyline
 90
        2
 70
     0
 43
0.0
 10
18.41207675964463
 20
-32.8471627499998
 10
18.3128227072579
 20
-32.76708915755673
  0
ARC
  5
AE4C0
330
1F
100
AcDbEntity
  8
HI Deatil 2
100
AcDbCircle
 10
18.22808503281639
 20
-32.87892788174749
 30
0.0
 40
0.1403152653790171
100
AcDbArc
 50
52.84961315188585
 51
127.6095190880154
  0
LWPOLYLINE
  5
AE4C1
330
1F
100
AcDbEntity
  8
HI HATCH FILL
100
AcDbPolyline
 90
        2
 70
     0
 43
0.0
 10
18.2275228353015
 20
-33.05070930147764
 10
18.2275228353015
 20
-33.84802813101085
  0
LWPOLYLINE
  5
AE4C2
330
1F
100
AcDbEntity
  8
HI Deatil 2
100
AcDbPolyline
 90
        2
 70
     0
 43
0.0
 10
18.0456437842428
 20
-34.05031081098665
 10
18.14245388363026
 20
-34.12970178562737
  0
LWPOLYLINE
  5
AE4C3
330
1F
100
AcDbEntity
  8
HI Deatil 2
100
AcDbPolyline
 90
        2
 70
     0
 43
0.0
 10
18.41207675964466
 20
-34.05031081098665
 10
18.31282270725794
 20
-34.13038440342973
  0
ARC
  5
AE4C4
330
1F
100
AcDbEntity
  8
HI Deatil 2
100
AcDbCircle
 10
18.22808503281644
 20
-34.01854567923896
 30
0.0
 40
0.1403152653790171
100
AcDbArc
 50
232.3904809119844
 51
307.1503868481141
  0
LWPOLYLINE
  5
AE4C5
330
1F
100
AcDbEntity
  8
HI Deatil 2
100
AcDbPolyline
 90
        2
 70
     0
 43
0.0
 10
19.64891750518934
 20
-32.8471627499998
 10
19.74572760457686
 20
-32.76777177535905
  0
LWPOLYLINE
  5
AE4C6
330
1F
100
AcDbEntity
  8
HI Deatil 2
100
AcDbPolyline
 90
        2
 70
     0
 43
0.0
 10
20.01535048059123
 20
-32.8471627499998
 10
19.91609642820451
 20
-32.76708915755673
  0
ARC
  5
AE4C7
330
1F
100
AcDbEntity
  8
HI Deatil 2
100
AcDbCircle
 10
19.831358753763
 20
-32.87892788174749
 30
0.0
 40
0.1403152653790171
100
AcDbArc
 50
52.84961315188585
 51
127.6095190880154
  0
LWPOLYLINE
  5
AE4C8
330
1F
100
AcDbEntity
  8
HI HATCH FILL
100
AcDbPolyline
 90
        2
 70
     0
 43
0.0
 10
19.8307965562481
 20
-33.05070930147764
 10
19.8307965562481
 20
-33.84802813101085
  0
LWPOLYLINE
  5
AE4C9
330
1F
100
AcDbEntity
  8
HI Deatil 2
100
AcDbPolyline
 90
        2
 70
     0
 43
0.0
 10
19.64891750518937
 20
-34.05031081098665
 10
19.7457276045769
 20
-34.12970178562737
  0
LWPOLYLINE
  5
AE4CA
330
1F
100
AcDbEntity
  8
HI Deatil 2
100
AcDbPolyline
 90
        2
 70
     0
 43
0.0
 10
20.01535048059127
 20
-34.05031081098665
 10
19.91609642820455
 20
-34.13038440342973
  0
ARC
  5
AE4CB
330
1F
100
AcDbEntity
  8
HI Deatil 2
100
AcDbCircle
 10
19.83135875376304
 20
-34.01854567923896
 30
0.0
 40
0.1403152653790171
100
AcDbArc
 50
232.3904809119844
 51
307.1503868481141
  0
CIRCLE
  5
AE4CC
330
1F
100
AcDbEntity
  8
HI HATCH FILL
100
AcDbCircle
 10
19.02915969577476
 20
-33.44936871624422
 30
0.0
 40
0.1335487093825943
  0
LINE
  5
AE501
330
1F
100
AcDbEntity
  8
HI Deatil 2
100
AcDbLine
 10
18.04564378424277
 20
-32.8471627499998
 30
0.0
 11
14.64905370434025
 21
-32.8471627499998
 31
0.0
  0
LINE
  5
AE502
330
1F
100
AcDbEntity
  8
HI Deatil 2
100
AcDbLine
 10
18.0456437842428
 20
-34.05031081098665
 30
0.0
 11
13.6106161180837
 21
-34.05031081098665
 31
0.0
  0
LINE
  5
AE553
102
{ACAD_REACTORS
330
AE589
102
}
330
1F
100
AcDbEntity
  8
HI Deatil 2
100
AcDbLine
 10
25.58320247847941
 20
-38.77944283833364
 30
0.0
 11
25.58320247847941
 21
-38.35515227137023
 31
0.0
  0
LINE
  5
AE554
102
{ACAD_REACTORS
330
AE589
102
}
330
1F
100
AcDbEntity
  8
HI Deatil 2
100
AcDbLine
 10
25.58320247847941
 20
-38.35515227137023
 30
0.0
 11
25.74504418208044
 21
-38.35515227137023
 31
0.0
  0
LINE
  5
AE555
102
{ACAD_REACTORS
330
AE589
102
}
330
1F
100
AcDbEntity
  8
HI Deatil 2
100
AcDbLine
 10
25.74504418208044
 20
-38.35515227137023
 30
0.0
 11
25.74836082061929
 21
-38.35515227137023
 31
0.0
  0
ARC
  5
AE556
102
{ACAD_REACTORS
330
AE589
102
}
330
1F
100
AcDbEntity
  8
HI Deatil 2
100
AcDbCircle
 10
25.74836082061929
 20
-38.34515227137023
 30
0.0
 40
0.0100000000000051
100
AcDbArc
 50
270.0
 51
36.53277559041383
  0
LINE
  5
AE557
102
{ACAD_REACTORS
330
AE589
102
}
330
1F
100
AcDbEntity
  8
HI Deatil 2
100
AcDbLine
 10
25.75639598527445
 20
-38.33919944607759
 30
0.0
 11
25.74504418208044
 21
-38.32387670379763
 31
0.0
  0
LINE
  5
AE558
102
{ACAD_REACTORS
330
AE589
102
}
330
1F
100
AcDbEntity
  8
HI Deatil 2
100
AcDbLine
 10
25.74504418208044
 20
-38.32387670379763
 30
0.0
 11
25.58320247847941
 21
-38.10542165555121
 31
0.0
  0
LINE
  5
AE559
102
{ACAD_REACTORS
330
AE589
102
}
330
1F
100
AcDbEntity
  8
HI Deatil 2
100
AcDbLine
 10
24.38005441749257
 20
-38.77944283833364
 30
0.0
 11
24.38005441749257
 21
-38.35515227137023
 31
0.0
  0
LINE
  5
AE55A
102
{ACAD_REACTORS
330
AE589
102
}
330
1F
100
AcDbEntity
  8
HI Deatil 2
100
AcDbLine
 10
24.38005441749257
 20
-38.35515227137023
 30
0.0
 11
24.21489607535269
 21
-38.35515227137023
 31
0.0
  0
ARC
  5
AE55B
102
{ACAD_REACTORS
330
AE589
102
}
330
1F
100
AcDbEntity
  8
HI Deatil 2
100
AcDbCircle
 10
24.21489607535269
 20
-38.34515227137023
 30
0.0
 40
0.0100000000000051
100
AcDbArc
 50
143.4672244095862
 51
270.0
  0
LINE
  5
AE55C
102
{ACAD_REACTORS
330
AE589
102
}
330
1F
100
AcDbEntity
  8
HI Deatil 2
100
AcDbLine
 10
24.20686091069754
 20
-38.33919944607759
 30
0.0
 11
24.38005441749257
 21
-38.10542165555121
 31
0.0
  0
LINE
  5
AE55D
102
{ACAD_REACTORS
330
AE589
102
}
330
1F
100
AcDbEntity
  8
HI Detail 3
100
AcDbLine
 10
25.99298121454816
 20
-40.32848480807508
 30
0.0
 11
23.91761949411792
 21
-40.32848480807508
 31
0.0
  0
LINE
  5
AE562
102
{ACAD_REACTORS
330
AE589
102
}
330
1F
100
AcDbEntity
  8
HI Detail 3
100
AcDbLine
 10
23.97761832410767
 20
-39.85128058518461
 30
0.0
 11
25.93298238455841
 21
-39.85128058518461
 31
0.0
  0
LINE
  5
AE563
102
{ACAD_REACTORS
330
AE589
102
}
330
1F
100
AcDbEntity
  8
HI Detail 3
100
AcDbLine
 10
25.93298238455841
 20
-40.04477434171502
 30
0.0
 11
25.93298238455841
 21
-39.85128058518461
 31
0.0
  0
LINE
  5
AE564
102
{ACAD_REACTORS
330
AE589
102
}
330
1F
100
AcDbEntity
  8
HI Detail 3
100
AcDbLine
 10
23.97761832410767
 20
-40.04477434171502
 30
0.0
 11
25.93298238455841
 21
-40.04477434171502
 31
0.0
  0
LINE
  5
AE565
102
{ACAD_REACTORS
330
AE589
102
}
330
1F
100
AcDbEntity
  8
HI Detail 3
100
AcDbLine
 10
24.12499220981635
 20
-40.04477434171502
 30
0.0
 11
24.12499220981635
 21
-40.32848480807508
 31
0.0
  0
LINE
  5
AE566
102
{ACAD_REACTORS
330
AE589
102
}
330
1F
100
AcDbEntity
  8
HI Detail 3
100
AcDbLine
 10
25.78560849884973
 20
-40.24537667229384
 30
0.0
 11
24.12499220981635
 21
-40.24537667229384
 31
0.0
  0
LINE
  5
AE567
102
{ACAD_REACTORS
330
AE589
102
}
330
1F
100
AcDbEntity
  8
HI Detail 3
100
AcDbLine
 10
25.78560849884973
 20
-40.13767364672026
 30
0.0
 11
24.12499220981635
 21
-40.13767364672483
 31
0.0
  0
LINE
  5
AE568
102
{ACAD_REACTORS
330
AE589
102
}
330
1F
100
AcDbEntity
  8
HI Detail 3
100
AcDbLine
 10
23.97761832410767
 20
-40.04477434171502
 30
0.0
 11
23.97761832410767
 21
-39.85128058518461
 31
0.0
  0
LINE
  5
AE569
102
{ACAD_REACTORS
330
AE589
102
}
330
1F
100
AcDbEntity
  8
HI Detail 3
100
AcDbLine
 10
23.97761832410767
 20
-39.55335554375674
 30
0.0
 11
24.10605447132641
 21
-39.55335554375674
 31
0.0
  0
LINE
  5
AE56A
102
{ACAD_REACTORS
330
AE589
102
}
330
1F
100
AcDbEntity
  8
HI Detail 3
100
AcDbLine
 10
24.10605447132641
 20
-39.55337748882208
 30
0.0
 11
24.46275295417971
 21
-39.55335554375671
 31
0.0
  0
LINE
  5
AE56B
102
{ACAD_REACTORS
330
AE589
102
}
330
1F
100
AcDbEntity
  8
HI Detail 3
100
AcDbLine
 10
24.46275295439184
 20
-39.55337320415849
 30
0.0
 11
25.50025676590527
 21
-39.5533607416586
 31
0.0
  0
LINE
  5
AE56C
102
{ACAD_REACTORS
330
AE589
102
}
330
1F
100
AcDbEntity
  8
HI Detail 3
100
AcDbLine
 10
25.50025675216583
 20
-39.55335554375674
 30
0.0
 11
25.74504418208044
 21
-39.55335554375674
 31
0.0
  0
LINE
  5
AE56D
102
{ACAD_REACTORS
330
AE589
102
}
330
1F
100
AcDbEntity
  8
HI Detail 3
100
AcDbLine
 10
25.74504418208044
 20
-39.55335554375674
 30
0.0
 11
25.93298238455841
 21
-39.55335554375674
 31
0.0
  0
LINE
  5
AE56E
102
{ACAD_REACTORS
330
AE589
102
}
330
1F
100
AcDbEntity
  8
HI Detail 3
100
AcDbLine
 10
25.93298238455841
 20
-39.74684930028715
 30
0.0
 11
25.93298238455841
 21
-39.55335554375674
 31
0.0
  0
LINE
  5
AE56F
102
{ACAD_REACTORS
330
AE589
102
}
330
1F
100
AcDbEntity
  8
HI Detail 3
100
AcDbLine
 10
23.97761832410767
 20
-39.74684930028715
 30
0.0
 11
25.93298238455841
 21
-39.74684930028715
 31
0.0
  0
LINE
  5
AE570
102
{ACAD_REACTORS
330
AE589
102
}
330
1F
100
AcDbEntity
  8
HI Detail 3
100
AcDbLine
 10
23.97761832410767
 20
-39.74684930028715
 30
0.0
 11
23.97761832410767
 21
-39.55335554375674
 31
0.0
  0
LINE
  5
AE571
102
{ACAD_REACTORS
330
AE589
102
}
330
1F
100
AcDbEntity
  8
HI Detail 3
100
AcDbLine
 10
25.03197144828294
 20
-39.74684930028715
 30
0.0
 11
25.03197144828294
 21
-39.85128058518461
 31
0.0
  0
LINE
  5
AE572
102
{ACAD_REACTORS
330
AE589
102
}
330
1F
100
AcDbEntity
  8
HI Detail 3
100
AcDbLine
 10
24.87862926038314
 20
-39.74684930028715
 30
0.0
 11
24.87862926038314
 21
-39.85128058518461
 31
0.0
  0
LINE
  5
AE573
102
{ACAD_REACTORS
330
AE589
102
}
330
1F
100
AcDbEntity
  8
HI Detail 3
100
AcDbLine
 10
25.85351390173349
 20
-39.74684930028715
 30
0.0
 11
25.85351390173349
 21
-39.85128058518461
 31
0.0
  0
LINE
  5
AE574
102
{ACAD_REACTORS
330
AE589
102
}
330
1F
100
AcDbEntity
  8
HI Detail 3
100
AcDbLine
 10
24.0570868069326
 20
-39.74684930028715
 30
0.0
 11
24.0570868069326
 21
-39.85128058518461
 31
0.0
  0
LINE
  5
AE575
102
{ACAD_REACTORS
330
AE589
102
}
330
1F
100
AcDbEntity
  8
HI Detail 3
100
AcDbLine
 10
25.78560849884973
 20
-40.04477434171502
 30
0.0
 11
25.78560849884973
 21
-40.32848480807508
 31
0.0
  0
LINE
  5
AE576
102
{ACAD_REACTORS
330
AE589
102
}
330
1F
100
AcDbEntity
  8
HI Detail 3
100
AcDbLine
 10
25.50025675216583
 20
-37.73136230120178
 30
0.0
 11
24.4627529541797
 21
-37.73136230120181
 31
0.0
  0
LINE
  5
AE577
102
{ACAD_REACTORS
330
AE589
102
}
330
1F
100
AcDbEntity
  8
HI Detail 3
100
AcDbLine
 10
25.63663346610429
 20
-38.30161098608937
 30
0.0
 11
24.32637624024103
 21
-38.30161098608937
 31
0.0
  0
LINE
  5
AE578
102
{ACAD_REACTORS
330
AE589
102
}
330
1F
100
AcDbEntity
  8
HI Detail 3
100
AcDbLine
 10
24.32637624024103
 20
-38.30161098608937
 30
0.0
 11
24.46275295417971
 21
-38.11752875660074
 31
0.0
  0
LINE
  5
AE579
102
{ACAD_REACTORS
330
AE589
102
}
330
1F
100
AcDbEntity
  8
HI Detail 3
100
AcDbLine
 10
24.46275295417971
 20
-38.11752875660074
 30
0.0
 11
25.50025675216583
 21
-38.11752875660074
 31
0.0
  0
LINE
  5
AE57A
102
{ACAD_REACTORS
330
AE589
102
}
330
1F
100
AcDbEntity
  8
HI Detail 3
100
AcDbLine
 10
25.63663346610431
 20
-38.30161098608937
 30
0.0
 11
25.50025675216583
 21
-38.11752875660074
 31
0.0
  0
LINE
  5
AE57B
102
{ACAD_REACTORS
330
AE589
102
}
330
1F
100
AcDbEntity
  8
HI Detail 3
100
AcDbLine
 10
24.46275295417971
 20
-38.11752875660074
 30
0.0
 11
24.4627529541797
 21
-37.73136230120178
 31
0.0
  0
LINE
  5
AE57C
102
{ACAD_REACTORS
330
AE589
102
}
330
1F
100
AcDbEntity
  8
HI Detail 3
100
AcDbLine
 10
25.50025675216583
 20
-38.11752875660074
 30
0.0
 11
25.50025675216583
 21
-37.73136230120178
 31
0.0
  0
LINE
  5
AE57D
102
{ACAD_REACTORS
330
AE589
102
}
330
1F
100
AcDbEntity
  8
HI Detail 3
100
AcDbLine
 10
24.46275295417971
 20
-38.77944283833364
 30
0.0
 11
24.4627529541797
 21
-38.30161098608937
 31
0.0
  0
LINE
  5
AE57E
102
{ACAD_REACTORS
330
AE589
102
}
330
1F
100
AcDbEntity
  8
HI Detail 3
100
AcDbLine
 10
25.50025675216583
 20
-38.77944283833364
 30
0.0
 11
25.50025675216583
 21
-38.30161098608937
 31
0.0
  0
LINE
  5
AE57F
102
{ACAD_REACTORS
330
AE589
102
}
330
1F
100
AcDbEntity
  8
HI Detail 3
100
AcDbLine
 10
24.36552790912274
 20
-38.77944283833364
 30
0.0
 11
24.36552790912274
 21
-38.89068366249279
 31
0.0
  0
LINE
  5
AE580
102
{ACAD_REACTORS
330
AE589
102
}
330
1F
100
AcDbEntity
  8
HI Detail 3
100
AcDbLine
 10
24.36552790912274
 20
-38.77944283833364
 30
0.0
 11
24.38005441749257
 21
-38.77944283833364
 31
0.0
  0
LINE
  5
AE581
102
{ACAD_REACTORS
330
AE589
102
}
330
1F
100
AcDbEntity
  8
HI Detail 3
100
AcDbLine
 10
24.38005441749257
 20
-38.77944283833364
 30
0.0
 11
25.58320247847941
 21
-38.77944283833364
 31
0.0
  0
LINE
  5
AE582
102
{ACAD_REACTORS
330
AE589
102
}
330
1F
100
AcDbEntity
  8
HI Detail 3
100
AcDbLine
 10
25.58320247847941
 20
-38.77944283833364
 30
0.0
 11
25.59748179722259
 21
-38.77944283833364
 31
0.0
  0
LINE
  5
AE583
102
{ACAD_REACTORS
330
AE589
102
}
330
1F
100
AcDbEntity
  8
HI Detail 3
100
AcDbLine
 10
24.36552790912274
 20
-38.89068366249279
 30
0.0
 11
24.46275295417971
 21
-38.89068366249279
 31
0.0
  0
LINE
  5
AE584
102
{ACAD_REACTORS
330
AE589
102
}
330
1F
100
AcDbEntity
  8
HI Detail 3
100
AcDbLine
 10
24.46275295417971
 20
-38.89068366249279
 30
0.0
 11
25.50025675216583
 21
-38.89068366249279
 31
0.0
  0
LINE
  5
AE585
102
{ACAD_REACTORS
330
AE589
102
}
330
1F
100
AcDbEntity
  8
HI Detail 3
100
AcDbLine
 10
25.50025675216583
 20
-38.89068366249279
 30
0.0
 11
25.59748179722259
 21
-38.89068366249279
 31
0.0
  0
LINE
  5
AE586
102
{ACAD_REACTORS
330
AE589
102
}
330
1F
100
AcDbEntity
  8
HI Detail 3
100
AcDbLine
 10
25.59748179722259
 20
-38.77944283833364
 30
0.0
 11
25.59748179722259
 21
-38.89068366249279
 31
0.0
  0
LINE
  5
AE587
102
{ACAD_REACTORS
330
AE589
102
}
330
1F
100
AcDbEntity
  8
HI Detail 3
100
AcDbLine
 10
24.46275295417971
 20
-39.55335554375671
 30
0.0
 11
24.46275295417971
 21
-38.89068366249279
 31
0.0
  0
LINE
  5
AE588
102
{ACAD_REACTORS
330
AE589
102
}
330
1F
100
AcDbEntity
  8
HI Detail 3
100
AcDbLine
 10
25.50025675216583
 20
-39.55335554375674
 30
0.0
 11
25.50025675216583
 21
-38.89068366249279
 31
0.0
  0
LWPOLYLINE
  5
AE60F
330
1F
100
AcDbEntity
  8
HI Deatil 2
100
AcDbPolyline
 90
        2
 70
     0
 43
0.0
 10
24.37997412324348
 20
-35.39495827924745
 10
24.38001708345243
 20
-36.84515022085239
  0
LWPOLYLINE
  5
AE610
330
1F
100
AcDbEntity
  8
HI Deatil 2
100
AcDbPolyline
 90
        2
 70
     0
 43
0.0
 10
25.58249316166126
 20
-35.39495827924745
 10
25.58264827240954
 20
-35.98767227067914
  0
LWPOLYLINE
  5
AE611
330
1F
100
AcDbEntity
  8
HI Deatil 2
100
AcDbPolyline
 90
        2
 70
     0
 43
0.0
 10
25.58280611819592
 20
-36.5908374743682
 10
25.58320247847941
 20
-38.10542165555121
  0
LWPOLYLINE
  5
AE612
330
1F
100
AcDbEntity
  8
HI Deatil 2
100
AcDbPolyline
 90
        2
 70
     0
 43
0.0
 10
24.38003494656117
 20
-37.44814859968246
 10
24.38005441749257
 20
-38.10542165555121
  0
MTEXT
  5
AE613
330
1F
100
AcDbEntity
  8
HI Text
100
AcDbMText
 10
43.08843564909444
 20
-35.21386995732984
 30
0.0
 40
0.5
 41
14.36766712141882
 46
0.0
 71
     1
 72
     1
  1
\A1;{\fArial|b0|i0|c0|p34;PLD OR PLD-LOC FITTING}
  7
Hunter
 73
     1
 44
1.0
  0
LINE
  5
AE6A4
102
{ACAD_REACTORS
330
AE6ED
102
}
330
1F
100
AcDbEntity
  8
HI Deatil 2
100
AcDbLine
 10
25.58142411413574
 20
-34.74325169510947
 30
0.0
 11
25.58142411413574
 21
-35.14750251829914
 31
0.0
  0
LINE
  5
AE6A5
102
{ACAD_REACTORS
330
AE6ED
102
}
330
1F
100
AcDbEntity
  8
HI Deatil 2
100
AcDbLine
 10
25.58142411413574
 20
-35.14750251829914
 30
0.0
 11
25.74616199556464
 21
-35.14750251829914
 31
0.0
  0
ARC
  5
AE6A6
102
{ACAD_REACTORS
330
AE6ED
102
}
330
1F
100
AcDbEntity
  8
HI Deatil 2
100
AcDbCircle
 10
25.74616199556464
 20
-35.15747706026259
 30
0.0
 40
0.009974541963427
100
AcDbArc
 50
323.4672244095478
 51
89.99999999994299
  0
LINE
  5
AE6A7
102
{ACAD_REACTORS
330
AE6ED
102
}
330
1F
100
AcDbEntity
  8
HI Deatil 2
100
AcDbLine
 10
25.75417670426821
 20
-35.1634147308308
 30
0.0
 11
25.58142411413574
 21
-35.39659736900368
 31
0.0
  0
LINE
  5
AE6A8
102
{ACAD_REACTORS
330
AE6ED
102
}
330
1F
100
AcDbEntity
  8
HI Deatil 2
100
AcDbLine
 10
24.38133903187944
 20
-34.74325169510947
 30
0.0
 11
24.38133903187944
 21
-35.14750251829914
 31
0.0
  0
LINE
  5
AE6A9
102
{ACAD_REACTORS
330
AE6ED
102
}
330
1F
100
AcDbEntity
  8
HI Deatil 2
100
AcDbLine
 10
24.38133903187944
 20
-35.14750251829914
 30
0.0
 11
24.21660115045061
 21
-35.14750251829914
 31
0.0
  0
ARC
  5
AE6AA
102
{ACAD_REACTORS
330
AE6ED
102
}
330
1F
100
AcDbEntity
  8
HI Deatil 2
100
AcDbCircle
 10
24.21660115045057
 20
-35.15747706026259
 30
0.0
 40
0.0099745419634469
100
AcDbArc
 50
89.99999999982902
 51
216.5327755902233
  0
LINE
  5
AE6AB
102
{ACAD_REACTORS
330
AE6ED
102
}
330
1F
100
AcDbEntity
  8
HI Deatil 2
100
AcDbLine
 10
24.20858644174695
 20
-35.1634147308308
 30
0.0
 11
24.38133903187944
 21
-35.39659736900368
 31
0.0
  0
LINE
  5
AE6AC
102
{ACAD_REACTORS
330
AE6ED
102
}
330
1F
100
AcDbEntity
  8
HI Detail 3
100
AcDbLine
 10
24.46407359465989
 20
-35.7819913551403
 30
0.0
 11
25.49893611168549
 21
-35.7819913551403
 31
0.0
  0
LINE
  5
AE6AD
102
{ACAD_REACTORS
330
AE6ED
102
}
330
1F
100
AcDbEntity
  8
HI Detail 3
100
AcDbLine
 10
24.32804406905812
 20
-35.21319441143874
 30
0.0
 11
25.63496563728743
 21
-35.21319441143874
 31
0.0
  0
LINE
  5
AE6AE
102
{ACAD_REACTORS
330
AE6ED
102
}
330
1F
100
AcDbEntity
  8
HI Detail 3
100
AcDbLine
 10
25.63496563728743
 20
-35.21319441143874
 30
0.0
 11
25.49893611168549
 21
-35.39680800371476
 31
0.0
  0
LINE
  5
AE6AF
102
{ACAD_REACTORS
330
AE6ED
102
}
330
1F
100
AcDbEntity
  8
HI Detail 3
100
AcDbLine
 10
25.49893611168549
 20
-35.39680800371476
 30
0.0
 11
24.46407359465989
 21
-35.39680800371476
 31
0.0
  0
LINE
  5
AE6B0
102
{ACAD_REACTORS
330
AE6ED
102
}
330
1F
100
AcDbEntity
  8
HI Detail 3
100
AcDbLine
 10
24.32804406905812
 20
-35.21319441143874
 30
0.0
 11
24.46407359465989
 21
-35.39680800371476
 31
0.0
  0
LINE
  5
AE6B1
102
{ACAD_REACTORS
330
AE6ED
102
}
330
1F
100
AcDbEntity
  8
HI Detail 3
100
AcDbLine
 10
25.49893611168549
 20
-35.39680800371476
 30
0.0
 11
25.49893611168549
 21
-35.7819913551403
 31
0.0
  0
LINE
  5
AE6B2
102
{ACAD_REACTORS
330
AE6ED
102
}
330
1F
100
AcDbEntity
  8
HI Detail 3
100
AcDbLine
 10
24.46407359465989
 20
-35.39680800371476
 30
0.0
 11
24.46407359465989
 21
-35.7819913551403
 31
0.0
  0
LINE
  5
AE6B3
102
{ACAD_REACTORS
330
AE6ED
102
}
330
1F
100
AcDbEntity
  8
HI Detail 3
100
AcDbLine
 10
25.49893611168549
 20
-34.73657902527007
 30
0.0
 11
25.49893611168549
 21
-35.21319441143874
 31
0.0
  0
LINE
  5
AE6B4
102
{ACAD_REACTORS
330
AE6ED
102
}
330
1F
100
AcDbEntity
  8
HI Detail 3
100
AcDbLine
 10
24.46407359465989
 20
-34.73657902527007
 30
0.0
 11
24.46407359465989
 21
-35.21319441143874
 31
0.0
  0
LINE
  5
AE6B5
102
{ACAD_REACTORS
330
AE6ED
102
}
330
1F
100
AcDbEntity
  8
HI Detail 3
100
AcDbLine
 10
25.5959136408674
 20
-34.73657902527007
 30
0.0
 11
25.5959136408674
 21
-34.62562139840767
 31
0.0
  0
LINE
  5
AE6B6
102
{ACAD_REACTORS
330
AE6ED
102
}
330
1F
100
AcDbEntity
  8
HI Detail 3
100
AcDbLine
 10
25.5959136408674
 20
-34.73657902527007
 30
0.0
 11
24.36709606547815
 21
-34.73657902527007
 31
0.0
  0
LINE
  5
AE6B7
102
{ACAD_REACTORS
330
AE6ED
102
}
330
1F
100
AcDbEntity
  8
HI Detail 3
100
AcDbLine
 10
25.5959136408674
 20
-34.62562139840767
 30
0.0
 11
24.36709606547815
 21
-34.62562139840767
 31
0.0
  0
LINE
  5
AE6B8
102
{ACAD_REACTORS
330
AE6ED
102
}
330
1F
100
AcDbEntity
  8
HI Detail 3
100
AcDbLine
 10
24.36709606547815
 20
-34.73657902527007
 30
0.0
 11
24.36709606547815
 21
-34.62562139840767
 31
0.0
  0
LINE
  5
AE6B9
102
{ACAD_REACTORS
330
AE6ED
102
}
330
1F
100
AcDbEntity
  8
HI Detail 3
100
AcDbLine
 10
25.18137815866876
 20
-32.81534469006564
 30
0.0
 11
24.83208465691819
 21
-32.81534469006564
 31
0.0
  0
LINE
  5
AE6BA
102
{ACAD_REACTORS
330
AE6ED
102
}
330
1F
100
AcDbEntity
  8
HI Detail 3
100
AcDbLine
 10
24.83208465691819
 20
-32.81534469006564
 30
0.0
 11
24.83208465691819
 21
-32.9297740326151
 31
0.0
  0
LINE
  5
AE6BB
102
{ACAD_REACTORS
330
AE6ED
102
}
330
1F
100
AcDbEntity
  8
HI Detail 3
100
AcDbLine
 10
25.18137815866876
 20
-32.81534469006564
 30
0.0
 11
25.18137815866876
 21
-32.9297740326151
 31
0.0
  0
LINE
  5
AE6BC
102
{ACAD_REACTORS
330
AE6ED
102
}
330
1F
100
AcDbEntity
  8
HI Detail 3
100
AcDbLine
 10
25.49893611168546
 20
-33.9646365496407
 30
0.0
 11
25.49893611168546
 21
-34.62562139840755
 31
0.0
  0
LINE
  5
AE6BD
102
{ACAD_REACTORS
330
AE6ED
102
}
330
1F
100
AcDbEntity
  8
HI Detail 3
100
AcDbLine
 10
24.46407359465985
 20
-33.9646365496407
 30
0.0
 11
24.46407359465985
 21
-34.62562139840755
 31
0.0
  0
LINE
  5
AE6BE
102
{ACAD_REACTORS
330
AE6ED
102
}
330
1F
100
AcDbEntity
  8
HI Detail 3
100
AcDbLine
 10
27.31629091718497
 20
-33.9646365496407
 30
0.0
 11
27.31629091718497
 21
-32.9297740326151
 31
0.0
  0
LINE
  5
AE6BF
102
{ACAD_REACTORS
330
AE6ED
102
}
330
1F
100
AcDbEntity
  8
HI Detail 3
100
AcDbLine
 10
26.74749397348339
 20
-34.10066607524247
 30
0.0
 11
26.74749397348339
 21
-32.79374450701317
 31
0.0
  0
LINE
  5
AE6C0
102
{ACAD_REACTORS
330
AE6ED
102
}
330
1F
100
AcDbEntity
  8
HI Detail 3
100
AcDbLine
 10
26.74749397348332
 20
-32.79374450701317
 30
0.0
 11
26.93110756575943
 21
-32.9297740326151
 31
0.0
  0
LINE
  5
AE6C1
102
{ACAD_REACTORS
330
AE6ED
102
}
330
1F
100
AcDbEntity
  8
HI Detail 3
100
AcDbLine
 10
26.93110756575943
 20
-32.9297740326151
 30
0.0
 11
26.93110756575943
 21
-33.9646365496407
 31
0.0
  0
LINE
  5
AE6C2
102
{ACAD_REACTORS
330
AE6ED
102
}
330
1F
100
AcDbEntity
  8
HI Detail 3
100
AcDbLine
 10
26.74749397348332
 20
-34.10066607524247
 30
0.0
 11
26.93110756575943
 21
-33.9646365496407
 31
0.0
  0
LINE
  5
AE6C3
102
{ACAD_REACTORS
330
AE6ED
102
}
330
1F
100
AcDbEntity
  8
HI Detail 3
100
AcDbLine
 10
26.93110756575943
 20
-32.9297740326151
 30
0.0
 11
27.31629091718497
 21
-32.9297740326151
 31
0.0
  0
LINE
  5
AE6C4
102
{ACAD_REACTORS
330
AE6ED
102
}
330
1F
100
AcDbEntity
  8
HI Detail 3
100
AcDbLine
 10
26.93110756575943
 20
-33.9646365496407
 30
0.0
 11
27.31629091718497
 21
-33.9646365496407
 31
0.0
  0
LINE
  5
AE6C5
102
{ACAD_REACTORS
330
AE6ED
102
}
330
1F
100
AcDbEntity
  8
HI Detail 3
100
AcDbLine
 10
26.27087858731482
 20
-32.9297740326151
 30
0.0
 11
26.74749397348339
 21
-32.9297740326151
 31
0.0
  0
LINE
  5
AE6C6
102
{ACAD_REACTORS
330
AE6ED
102
}
330
1F
100
AcDbEntity
  8
HI Detail 3
100
AcDbLine
 10
26.27087858731482
 20
-33.9646365496407
 30
0.0
 11
26.74749397348339
 21
-33.9646365496407
 31
0.0
  0
LINE
  5
AE6C7
102
{ACAD_REACTORS
330
AE6ED
102
}
330
1F
100
AcDbEntity
  8
HI Detail 3
100
AcDbLine
 10
26.27087858731482
 20
-32.83279650343315
 30
0.0
 11
26.15992096045235
 21
-32.83279650343315
 31
0.0
  0
LINE
  5
AE6C8
102
{ACAD_REACTORS
330
AE6ED
102
}
330
1F
100
AcDbEntity
  8
HI Detail 3
100
AcDbLine
 10
26.27087858731482
 20
-32.83279650343315
 30
0.0
 11
26.27087858731482
 21
-34.06161407882246
 31
0.0
  0
LINE
  5
AE6C9
102
{ACAD_REACTORS
330
AE6ED
102
}
330
1F
100
AcDbEntity
  8
HI Detail 3
100
AcDbLine
 10
26.15992096045235
 20
-32.83279650343315
 30
0.0
 11
26.15992096045235
 21
-34.06161407882246
 31
0.0
  0
LINE
  5
AE6CA
102
{ACAD_REACTORS
330
AE6ED
102
}
330
1F
100
AcDbEntity
  8
HI Detail 3
100
AcDbLine
 10
26.27087858731482
 20
-34.06161407882246
 30
0.0
 11
26.15992096045235
 21
-34.06161407882246
 31
0.0
  0
LINE
  5
AE6CB
102
{ACAD_REACTORS
330
AE6ED
102
}
330
1F
100
AcDbEntity
  8
HI Detail 3
100
AcDbLine
 10
25.49893611168546
 20
-33.9646365496407
 30
0.0
 11
26.15992096045235
 21
-33.9646365496407
 31
0.0
  0
LINE
  5
AE6CC
102
{ACAD_REACTORS
330
AE6ED
102
}
330
1F
100
AcDbEntity
  8
HI Detail 3
100
AcDbLine
 10
26.15992096045235
 20
-32.9297740326151
 30
0.0
 11
26.15992096045235
 21
-32.83279650343315
 31
0.0
  0
LINE
  5
AE6CD
102
{ACAD_REACTORS
330
AE6ED
102
}
330
1F
100
AcDbEntity
  8
HI Detail 3
100
AcDbLine
 10
22.64671878916034
 20
-33.9646365496407
 30
0.0
 11
22.64671878916034
 21
-32.9297740326151
 31
0.0
  0
LINE
  5
AE6CE
102
{ACAD_REACTORS
330
AE6ED
102
}
330
1F
100
AcDbEntity
  8
HI Detail 3
100
AcDbLine
 10
23.21551573286198
 20
-34.10066607524247
 30
0.0
 11
23.21551573286198
 21
-32.79374450701317
 31
0.0
  0
LINE
  5
AE6CF
102
{ACAD_REACTORS
330
AE6ED
102
}
330
1F
100
AcDbEntity
  8
HI Detail 3
100
AcDbLine
 10
23.21551573286198
 20
-32.79374450701317
 30
0.0
 11
23.03190214058588
 21
-32.9297740326151
 31
0.0
  0
LINE
  5
AE6D0
102
{ACAD_REACTORS
330
AE6ED
102
}
330
1F
100
AcDbEntity
  8
HI Detail 3
100
AcDbLine
 10
23.03190214058588
 20
-32.9297740326151
 30
0.0
 11
23.03190214058588
 21
-33.9646365496407
 31
0.0
  0
LINE
  5
AE6D1
102
{ACAD_REACTORS
330
AE6ED
102
}
330
1F
100
AcDbEntity
  8
HI Detail 3
100
AcDbLine
 10
23.21551573286198
 20
-34.10066607524247
 30
0.0
 11
23.03190214058588
 21
-33.9646365496407
 31
0.0
  0
LINE
  5
AE6D2
102
{ACAD_REACTORS
330
AE6ED
102
}
330
1F
100
AcDbEntity
  8
HI Detail 3
100
AcDbLine
 10
23.03190214058588
 20
-32.9297740326151
 30
0.0
 11
22.64671878916034
 21
-32.9297740326151
 31
0.0
  0
LINE
  5
AE6D3
102
{ACAD_REACTORS
330
AE6ED
102
}
330
1F
100
AcDbEntity
  8
HI Detail 3
100
AcDbLine
 10
23.03190214058588
 20
-33.9646365496407
 30
0.0
 11
22.64671878916034
 21
-33.9646365496407
 31
0.0
  0
LINE
  5
AE6D4
102
{ACAD_REACTORS
330
AE6ED
102
}
330
1F
100
AcDbEntity
  8
HI Detail 3
100
AcDbLine
 10
23.69213111903057
 20
-32.9297740326151
 30
0.0
 11
23.21551573286198
 21
-32.9297740326151
 31
0.0
  0
LINE
  5
AE6D5
102
{ACAD_REACTORS
330
AE6ED
102
}
330
1F
100
AcDbEntity
  8
HI Detail 3
100
AcDbLine
 10
23.69213111903057
 20
-33.9646365496407
 30
0.0
 11
23.21551573286198
 21
-33.9646365496407
 31
0.0
  0
LINE
  5
AE6D6
102
{ACAD_REACTORS
330
AE6ED
102
}
330
1F
100
AcDbEntity
  8
HI Detail 3
100
AcDbLine
 10
23.69213111903057
 20
-32.83279650343315
 30
0.0
 11
23.80308874589304
 21
-32.83279650343315
 31
0.0
  0
LINE
  5
AE6D7
102
{ACAD_REACTORS
330
AE6ED
102
}
330
1F
100
AcDbEntity
  8
HI Detail 3
100
AcDbLine
 10
23.69213111903057
 20
-32.83279650343315
 30
0.0
 11
23.69213111903057
 21
-34.06161407882246
 31
0.0
  0
LINE
  5
AE6D8
102
{ACAD_REACTORS
330
AE6ED
102
}
330
1F
100
AcDbEntity
  8
HI Detail 3
100
AcDbLine
 10
23.80308874589304
 20
-32.83279650343315
 30
0.0
 11
23.80308874589304
 21
-34.06161407882246
 31
0.0
  0
LINE
  5
AE6D9
102
{ACAD_REACTORS
330
AE6ED
102
}
330
1F
100
AcDbEntity
  8
HI Detail 3
100
AcDbLine
 10
23.69213111903057
 20
-34.06161407882246
 30
0.0
 11
23.80308874589304
 21
-34.06161407882246
 31
0.0
  0
LINE
  5
AE6DA
102
{ACAD_REACTORS
330
AE6ED
102
}
330
1F
100
AcDbEntity
  8
HI Detail 3
100
AcDbLine
 10
26.15992096045235
 20
-32.92977403261519
 30
0.0
 11
23.80308874589304
 21
-32.9297740326151
 31
0.0
  0
LINE
  5
AE6DB
102
{ACAD_REACTORS
330
AE6ED
102
}
330
1F
100
AcDbEntity
  8
HI Detail 3
100
AcDbLine
 10
24.46407359465985
 20
-33.9646365496407
 30
0.0
 11
23.80308874589304
 21
-33.9646365496407
 31
0.0
  0
LINE
  5
AE6DC
102
{ACAD_REACTORS
330
AE6ED
102
}
330
1F
100
AcDbEntity
  8
HI Detail 3
100
AcDbLine
 10
23.80308874589304
 20
-32.9297740326151
 30
0.0
 11
23.80308874589304
 21
-32.83279650343315
 31
0.0
  0
LINE
  5
AE6DD
102
{ACAD_REACTORS
330
AE6ED
102
}
330
1F
100
AcDbEntity
  8
HI Deatil 2
100
AcDbLine
 10
26.27087858731482
 20
-32.8471627499998
 30
0.0
 11
26.67512941050441
 21
-32.8471627499998
 31
0.0
  0
LINE
  5
AE6DE
102
{ACAD_REACTORS
330
AE6ED
102
}
330
1F
100
AcDbEntity
  8
HI Deatil 2
100
AcDbLine
 10
26.67512941050441
 20
-32.8471627499998
 30
0.0
 11
26.67512941050441
 21
-32.68242486857089
 31
0.0
  0
ARC
  5
AE6DF
102
{ACAD_REACTORS
330
AE6ED
102
}
330
1F
100
AcDbEntity
  8
HI Deatil 2
100
AcDbCircle
 10
26.68510395246789
 20
-32.68242486857089
 30
0.0
 40
0.0099745419634817
100
AcDbArc
 50
53.4672244095368
 51
180.0
  0
LINE
  5
AE6E0
102
{ACAD_REACTORS
330
AE6ED
102
}
330
1F
100
AcDbEntity
  8
HI Deatil 2
100
AcDbLine
 10
26.69104162303615
 20
-32.67441015986728
 30
0.0
 11
26.92422426120901
 21
-32.8471627499998
 31
0.0
  0
LINE
  5
AE6E1
102
{ACAD_REACTORS
330
AE6ED
102
}
330
1F
100
AcDbEntity
  8
HI Deatil 2
100
AcDbLine
 10
26.27087858731482
 20
-34.04724783225605
 30
0.0
 11
26.67512941050441
 21
-34.04724783225605
 31
0.0
  0
LINE
  5
AE6E2
102
{ACAD_REACTORS
330
AE6ED
102
}
330
1F
100
AcDbEntity
  8
HI Deatil 2
100
AcDbLine
 10
26.67512941050441
 20
-34.04724783225605
 30
0.0
 11
26.67512941050441
 21
-34.21198571368491
 31
0.0
  0
ARC
  5
AE6E3
102
{ACAD_REACTORS
330
AE6ED
102
}
330
1F
100
AcDbEntity
  8
HI Deatil 2
100
AcDbCircle
 10
26.68510395246789
 20
-34.21198571368491
 30
0.0
 40
0.0099745419634817
100
AcDbArc
 50
180.0
 51
306.5327755904643
  0
LINE
  5
AE6E4
102
{ACAD_REACTORS
330
AE6ED
102
}
330
1F
100
AcDbEntity
  8
HI Deatil 2
100
AcDbLine
 10
26.69104162303615
 20
-34.22000042238853
 30
0.0
 11
26.92008983138356
 21
-34.05031081098665
 31
0.0
  0
LINE
  5
AE6E5
102
{ACAD_REACTORS
330
AE6ED
102
}
330
1F
100
AcDbEntity
  8
HI Deatil 2
100
AcDbLine
 10
23.69213111903057
 20
-32.8471627499998
 30
0.0
 11
23.2878802958409
 21
-32.8471627499998
 31
0.0
  0
LINE
  5
AE6E6
102
{ACAD_REACTORS
330
AE6ED
102
}
330
1F
100
AcDbEntity
  8
HI Deatil 2
100
AcDbLine
 10
23.2878802958409
 20
-32.8471627499998
 30
0.0
 11
23.2878802958409
 21
-32.68242486857089
 31
0.0
  0
ARC
  5
AE6E7
102
{ACAD_REACTORS
330
AE6ED
102
}
330
1F
100
AcDbEntity
  8
HI Deatil 2
100
AcDbCircle
 10
23.27790575387746
 20
-32.68242486857089
 30
0.0
 40
0.0099745419634419
100
AcDbArc
 50
359.999999999886
 51
126.5327755903486
  0
LINE
  5
AE6E8
102
{ACAD_REACTORS
330
AE6ED
102
}
330
1F
100
AcDbEntity
  8
HI Deatil 2
100
AcDbLine
 10
23.27196808330922
 20
-32.67441015986728
 30
0.0
 11
23.03878544513628
 21
-32.8471627499998
 31
0.0
  0
LINE
  5
AE6E9
102
{ACAD_REACTORS
330
AE6ED
102
}
330
1F
100
AcDbEntity
  8
HI Deatil 2
100
AcDbLine
 10
23.69213111903057
 20
-34.04724783225605
 30
0.0
 11
23.2878802958409
 21
-34.04724783225605
 31
0.0
  0
LINE
  5
AE6EA
102
{ACAD_REACTORS
330
AE6ED
102
}
330
1F
100
AcDbEntity
  8
HI Deatil 2
100
AcDbLine
 10
23.2878802958409
 20
-34.04724783225605
 30
0.0
 11
23.2878802958409
 21
-34.21198571368491
 31
0.0
  0
ARC
  5
AE6EB
102
{ACAD_REACTORS
330
AE6ED
102
}
330
1F
100
AcDbEntity
  8
HI Deatil 2
100
AcDbCircle
 10
23.27790575387746
 20
-34.21198571368496
 30
0.0
 40
0.0099745419634419
100
AcDbArc
 50
233.4672244096514
 51
0.0000000001156195
  0
LINE
  5
AE6EC
102
{ACAD_REACTORS
330
AE6ED
102
}
330
1F
100
AcDbEntity
  8
HI Deatil 2
100
AcDbLine
 10
23.27196808330922
 20
-34.22000042238853
 30
0.0
 11
23.04291987496172
 21
-34.05031081098665
 31
0.0
  0
LINE
  5
AE6F0
330
1F
100
AcDbEntity
  8
HI Deatil 2
100
AcDbLine
 10
26.92422426120927
 20
-32.8471627499998
 30
0.0
 11
29.94765922575432
 21
-32.8471627499998
 31
0.0
  0
LINE
  5
AE6F1
330
1F
100
AcDbEntity
  8
HI Deatil 2
100
AcDbLine
 10
31.91736592210278
 20
-32.8471627499998
 30
0.0
 11
35.31395600200528
 21
-32.8471627499998
 31
0.0
  0
LINE
  5
AE6F2
330
1F
100
AcDbEntity
  8
HI Deatil 2
100
AcDbLine
 10
26.92008983138381
 20
-34.05031081098665
 30
0.0
 11
29.94765922575427
 21
-34.05031081098665
 31
0.0
  0
LINE
  5
AE6F3
330
1F
100
AcDbEntity
  8
HI Deatil 2
100
AcDbLine
 10
31.91736592210274
 20
-34.05031081098665
 30
0.0
 11
34.27551841574873
 21
-34.05031081098665
 31
0.0
  0
LINE
  5
AE6F4
330
1F
100
AcDbEntity
  8
HI Deatil 2
100
AcDbLine
 10
31.55093294670092
 20
-32.8471627499998
 30
0.0
 11
30.31409220115621
 21
-32.8471627499998
 31
0.0
  0
LWPOLYLINE
  5
AE6F5
330
1F
100
AcDbEntity
  8
HI Deatil 2
100
AcDbPolyline
 90
        2
 70
     0
 43
0.0
 10
31.55093294670092
 20
-32.8471627499998
 10
30.31409220115621
 20
-32.8471627499998
  0
LWPOLYLINE
  5
AE6F6
330
1F
100
AcDbEntity
  8
HI Deatil 2
100
AcDbPolyline
 90
        2
 70
     0
 43
0.0
 10
31.55093294670088
 20
-34.05031081098665
 10
30.31409220115617
 20
-34.05031081098665
  0
LWPOLYLINE
  5
AE6F7
330
1F
100
AcDbEntity
  8
HI Deatil 2
100
AcDbPolyline
 90
        2
 70
     0
 43
0.0
 10
31.91736592210278
 20
-32.8471627499998
 10
31.82055582271533
 20
-32.76777177535905
  0
LWPOLYLINE
  5
AE6F8
330
1F
100
AcDbEntity
  8
HI Deatil 2
100
AcDbPolyline
 90
        2
 70
     0
 43
0.0
 10
31.55093294670092
 20
-32.8471627499998
 10
31.65018699908765
 20
-32.76708915755673
  0
ARC
  5
AE6F9
330
1F
100
AcDbEntity
  8
HI Deatil 2
100
AcDbCircle
 10
31.73492467352915
 20
-32.87892788174749
 30
0.0
 40
0.1403152653790171
100
AcDbArc
 50
52.3904809119846
 51
127.1503868481141
  0
LWPOLYLINE
  5
AE6FA
330
1F
100
AcDbEntity
  8
HI HATCH FILL
100
AcDbPolyline
 90
        2
 70
     0
 43
0.0
 10
31.73548687104405
 20
-33.05070930147764
 10
31.73548687104405
 20
-33.84802813101085
  0
LWPOLYLINE
  5
AE6FB
330
1F
100
AcDbEntity
  8
HI Deatil 2
100
AcDbPolyline
 90
        2
 70
     0
 43
0.0
 10
31.91736592210274
 20
-34.05031081098665
 10
31.82055582271529
 20
-34.12970178562737
  0
LWPOLYLINE
  5
AE6FC
330
1F
100
AcDbEntity
  8
HI Deatil 2
100
AcDbPolyline
 90
        2
 70
     0
 43
0.0
 10
31.55093294670088
 20
-34.05031081098665
 10
31.6501869990876
 20
-34.13038440342973
  0
ARC
  5
AE6FD
330
1F
100
AcDbEntity
  8
HI Deatil 2
100
AcDbCircle
 10
31.73492467352911
 20
-34.01854567923896
 30
0.0
 40
0.1403152653790171
100
AcDbArc
 50
232.8496131518859
 51
307.6095190880155
  0
LWPOLYLINE
  5
AE6FE
330
1F
100
AcDbEntity
  8
HI Deatil 2
100
AcDbPolyline
 90
        2
 70
     0
 43
0.0
 10
30.31409220115621
 20
-32.8471627499998
 10
30.21728210176868
 20
-32.76777177535905
  0
LWPOLYLINE
  5
AE6FF
330
1F
100
AcDbEntity
  8
HI Deatil 2
100
AcDbPolyline
 90
        2
 70
     0
 43
0.0
 10
29.94765922575432
 20
-32.8471627499998
 10
30.04691327814104
 20
-32.76708915755673
  0
ARC
  5
AE700
330
1F
100
AcDbEntity
  8
HI Deatil 2
100
AcDbCircle
 10
30.13165095258254
 20
-32.87892788174749
 30
0.0
 40
0.1403152653790171
100
AcDbArc
 50
52.3904809119846
 51
127.1503868481141
  0
LWPOLYLINE
  5
AE701
330
1F
100
AcDbEntity
  8
HI HATCH FILL
100
AcDbPolyline
 90
        2
 70
     0
 43
0.0
 10
30.13221315009744
 20
-33.05070930147764
 10
30.13221315009744
 20
-33.84802813101085
  0
LWPOLYLINE
  5
AE702
330
1F
100
AcDbEntity
  8
HI Deatil 2
100
AcDbPolyline
 90
        2
 70
     0
 43
0.0
 10
30.31409220115617
 20
-34.05031081098665
 10
30.21728210176864
 20
-34.12970178562737
  0
LWPOLYLINE
  5
AE703
330
1F
100
AcDbEntity
  8
HI Deatil 2
100
AcDbPolyline
 90
        2
 70
     0
 43
0.0
 10
29.94765922575427
 20
-34.05031081098665
 10
30.046913278141
 20
-34.13038440342973
  0
ARC
  5
AE704
330
1F
100
AcDbEntity
  8
HI Deatil 2
100
AcDbCircle
 10
30.1316509525825
 20
-34.01854567923896
 30
0.0
 40
0.1403152653790171
100
AcDbArc
 50
232.8496131518859
 51
307.6095190880155
  0
CIRCLE
  5
AE705
330
1F
100
AcDbEntity
  8
HI HATCH FILL
100
AcDbCircle
 10
30.93385001057079
 20
-33.44936871624422
 30
0.0
 40
0.1335487093825943
  0
HATCH
  5
AE718
330
1F
100
AcDbEntity
  8
HI HATCH FILL
100
AcDbHatch
 10
0.0
 20
0.0
 30
0.0
210
0.0
220
0.0
230
1.0
  2
AR-SAND
 70
     0
 71
     0
 91
        1
 92
        1
 93
       56
 72
     1
 10
35.31395600200529
 20
-28.60790607488036
 11
35.31395600200528
 21
-32.8471627499998
 72
     1
 10
35.31395600200528
 20
-32.8471627499998
 11
31.91736592210278
 21
-32.8471627499998
 72
     1
 10
31.91736592210278
 20
-32.8471627499998
 11
31.82055582271511
 21
-32.76777177535888
 72
     1
 10
31.82055582271511
 20
-32.76777177535888
 11
31.7706776088021
 21
-32.74324405324256
 72
     1
 10
31.7706776088021
 20
-32.74324405324256
 11
31.73548687104407
 21
-32.73861374264405
 72
     1
 10
31.73548687104407
 20
-32.73861374264405
 11
31.67803613334985
 21
-32.75066226790399
 72
     1
 10
31.67803613334985
 20
-32.75066226790399
 11
31.65018699908868
 21
-32.76708915755589
 72
     1
 10
31.65018699908868
 20
-32.76708915755589
 11
31.55093294670092
 21
-32.8471627499998
 72
     1
 10
31.55093294670092
 20
-32.8471627499998
 11
30.31409220115621
 21
-32.8471627499998
 72
     1
 10
30.31409220115621
 20
-32.8471627499998
 11
30.21728210176799
 21
-32.76777177535848
 72
     1
 10
30.21728210176799
 20
-32.76777177535848
 11
30.17075136797899
 21
-32.74417057688349
 72
     1
 10
30.17075136797899
 20
-32.74417057688349
 11
30.13221315009746
 21
-32.73861374264405
 72
     1
 10
30.13221315009746
 20
-32.73861374264405
 11
30.0898199478044
 21
-32.74499304409263
 72
     1
 10
30.0898199478044
 20
-32.74499304409263
 11
30.04691327814208
 21
-32.76708915755587
 72
     1
 10
30.04691327814208
 20
-32.76708915755587
 11
29.94765922575432
 21
-32.8471627499998
 72
     1
 10
29.94765922575432
 20
-32.8471627499998
 11
26.92422426120901
 21
-32.8471627499998
 72
     1
 10
26.92422426120901
 20
-32.8471627499998
 11
26.69104162303617
 21
-32.67441015986727
 72
     1
 10
26.69104162303617
 20
-32.67441015986727
 11
26.68061697446858
 21
-32.67441015986727
 72
     1
 10
26.68061697446858
 20
-32.67441015986727
 11
26.67512941050441
 21
-32.68242486857089
 72
     1
 10
26.67512941050441
 20
-32.68242486857089
 11
26.67512941050441
 21
-32.8471627499998
 72
     1
 10
26.67512941050441
 20
-32.8471627499998
 11
26.27087858731482
 21
-32.8471627499998
 72
     1
 10
26.27087858731482
 20
-32.8471627499998
 11
26.27087858731482
 21
-32.83279650343315
 72
     1
 10
26.27087858731482
 20
-32.83279650343315
 11
26.15992096045235
 21
-32.83279650343315
 72
     1
 10
26.15992096045235
 20
-32.83279650343315
 11
26.15992096045235
 21
-32.9297740326151
 72
     1
 10
26.15992096045235
 20
-32.9297740326151
 11
25.18137815866876
 21
-32.9297740326151
 72
     1
 10
25.18137815866876
 20
-32.9297740326151
 11
25.18137815866876
 21
-32.81534469006564
 72
     1
 10
25.18137815866876
 20
-32.81534469006564
 11
24.83208465691819
 21
-32.81534469006564
 72
     1
 10
24.83208465691819
 20
-32.81534469006564
 11
24.83208465691819
 21
-32.9297740326151
 72
     1
 10
24.83208465691819
 20
-32.9297740326151
 11
23.80308874589304
 21
-32.9297740326151
 72
     1
 10
23.80308874589304
 20
-32.9297740326151
 11
23.80308874589304
 21
-32.83279650343315
 72
     1
 10
23.80308874589304
 20
-32.83279650343315
 11
23.69213111903057
 21
-32.83279650343315
 72
     1
 10
23.69213111903057
 20
-32.83279650343315
 11
23.69213111903057
 21
-32.8471627499998
 72
     1
 10
23.69213111903057
 20
-32.8471627499998
 11
23.2878802958409
 21
-32.8471627499998
 72
     1
 10
23.2878802958409
 20
-32.8471627499998
 11
23.2878802958409
 21
-32.68242486857091
 72
     1
 10
23.2878802958409
 20
-32.68242486857091
 11
23.28239273187677
 21
-32.67351652889315
 72
     1
 10
23.28239273187677
 20
-32.67351652889315
 11
23.27196808330922
 21
-32.67441015986728
 72
     1
 10
23.27196808330922
 20
-32.67441015986728
 11
23.03878544513628
 21
-32.8471627499998
 72
     1
 10
23.03878544513628
 20
-32.8471627499998
 11
20.01535048059123
 21
-32.8471627499998
 72
     1
 10
20.01535048059123
 20
-32.8471627499998
 11
19.91609642820337
 21
-32.76708915755581
 72
     1
 10
19.91609642820337
 20
-32.76708915755581
 11
19.88105575108546
 21
-32.74770828658154
 72
     1
 10
19.88105575108546
 20
-32.74770828658154
 11
19.831358753763
 21
-32.73861261636847
 72
     1
 10
19.831358753763
 20
-32.73861261636847
 11
19.78239370488439
 21
-32.74743340396724
 72
     1
 10
19.78239370488439
 20
-32.74743340396724
 11
19.74572760457737
 21
-32.76777177535862
 72
     1
 10
19.74572760457737
 20
-32.76777177535862
 11
19.64891750518934
 21
-32.8471627499998
 72
     1
 10
19.64891750518934
 20
-32.8471627499998
 11
18.41207675964463
 21
-32.8471627499998
 72
     1
 10
18.41207675964463
 20
-32.8471627499998
 11
18.31282270725673
 21
-32.76708915755579
 72
     1
 10
18.31282270725673
 20
-32.76708915755579
 11
18.27938709732589
 21
-32.74832745343484
 72
     1
 10
18.27938709732589
 20
-32.74832745343484
 11
18.24685671023988
 21
-32.73987394320171
 72
     1
 10
18.24685671023988
 20
-32.73987394320171
 11
18.21585538215289
 21
-32.7391465906423
 72
     1
 10
18.21585538215289
 20
-32.7391465906423
 11
18.18441214649432
 21
-32.74558226802629
 72
     1
 10
18.18441214649432
 20
-32.74558226802629
 11
18.16039522717157
 21
-32.75601952600977
 72
     1
 10
18.16039522717157
 20
-32.75601952600977
 11
18.14245388363043
 21
-32.76777177535888
 72
     1
 10
18.14245388363043
 20
-32.76777177535888
 11
18.04564378424277
 21
-32.8471627499998
 72
     1
 10
18.04564378424277
 20
-32.8471627499998
 11
14.64905370434025
 21
-32.8471627499998
 72
     1
 10
14.64905370434025
 20
-32.8471627499998
 11
14.64905370434025
 21
-28.60790607488036
 72
     1
 10
14.64905370434025
 20
-28.60790607488036
 11
35.31395600200529
 21
-28.60790607488036
 97
        0
 75
     1
 76
     1
 52
0.0
 41
0.25
 77
     0
 78
     4
 53
37.5
 43
14.64905370434025
 44
-32.9297740326151
 45
-0.0157483395274021
 46
0.4817059422532897
 79
     6
 49
0.0
 49
-0.38
 49
0.0
 49
-0.425
 49
0.0
 49
-0.40625
 53
7.499999999999999
 43
14.64905370434025
 44
-32.9297740326151
 45
0.4424441763169318
 46
0.7055365163074351
 79
     6
 49
0.0
 49
-0.205
 49
0.0
 49
-0.3425
 49
0.0
 49
-0.13125
 53
327.5
 43
14.34155370434025
 44
-32.9297740326151
 45
0.7785354654378738
 46
0.0014147633842412
 79
     6
 49
0.0
 49
-0.125
 49
0.0
 49
-0.45
 49
0.0
 49
-0.5875
 53
317.5
 43
14.34155370434025
 44
-32.9297740326151
 45
0.7515316511430735
 46
0.2194188912335623
 79
     6
 49
0.0
 49
-0.0625
 49
0.0
 49
-0.295
 49
0.0
 49
-0.3375
 98
        1
 10
0.0
 20
0.0
1001
GradientColor1ACI
1070
     5
1001
GradientColor2ACI
1070
     2
1001
ACAD
1010
0.0
1020
0.0
1030
0.0
  0
HATCH
  5
AE721
330
1F
100
AcDbEntity
  8
HI HATCH FILL
100
AcDbHatch
 10
0.0
 20
0.0
 30
0.0
210
0.0
220
0.0
230
1.0
  2
EARTH
 70
     0
 71
     0
 91
        1
 92
        1
 93
      203
 72
     1
 10
25.94269875833106
 20
-36.4167637307914
 11
25.58868424044637
 21
-35.99486565727182
 72
     1
 10
25.58868424044637
 20
-35.99486565727182
 11
25.58142411413574
 21
-35.39659736900368
 72
     1
 10
25.58142411413574
 20
-35.39659736900368
 11
25.75417670426822
 21
-35.16341473083083
 72
     1
 10
25.75417670426822
 20
-35.16341473083083
 11
25.75613653752807
 21
-35.15747706026259
 72
     1
 10
25.75613653752807
 20
-35.15747706026259
 11
25.75316119670061
 21
-35.15037053714376
 72
     1
 10
25.75316119670061
 20
-35.15037053714376
 11
25.74616199556464
 21
-35.14750251829916
 72
     1
 10
25.74616199556464
 20
-35.14750251829916
 11
25.58142411413574
 21
-35.14750251829916
 72
     1
 10
25.58142411413574
 20
-35.14750251829916
 11
25.58142411413574
 21
-34.74325169510947
 72
     1
 10
25.58142411413574
 20
-34.74325169510947
 11
25.58142411413574
 21
-34.73657902527007
 72
     1
 10
25.58142411413574
 20
-34.73657902527007
 11
25.5959136408674
 21
-34.73657902527007
 72
     1
 10
25.5959136408674
 20
-34.73657902527007
 11
25.5959136408674
 21
-34.62562139840767
 72
     1
 10
25.5959136408674
 20
-34.62562139840767
 11
25.49893611168546
 21
-34.62562139840767
 72
     1
 10
25.49893611168546
 20
-34.62562139840767
 11
25.49893611168546
 21
-33.9646365496407
 72
     1
 10
25.49893611168546
 20
-33.9646365496407
 11
26.15992096045235
 21
-33.9646365496407
 72
     1
 10
26.15992096045235
 20
-33.9646365496407
 11
26.15992096045235
 21
-34.06161407882246
 72
     1
 10
26.15992096045235
 20
-34.06161407882246
 11
26.27087858731482
 21
-34.06161407882246
 72
     1
 10
26.27087858731482
 20
-34.06161407882246
 11
26.27087858731482
 21
-34.04724783225605
 72
     1
 10
26.27087858731482
 20
-34.04724783225605
 11
26.67512941050441
 21
-34.04724783225605
 72
     1
 10
26.67512941050441
 20
-34.04724783225605
 11
26.67512941050441
 21
-34.21198571368491
 72
     1
 10
26.67512941050441
 20
-34.21198571368491
 11
26.67751598727162
 21
-34.21845983691215
 72
     1
 10
26.67751598727162
 20
-34.21845983691215
 11
26.68342021665974
 21
-34.22181711852398
 72
     1
 10
26.68342021665974
 20
-34.22181711852398
 11
26.68931206301332
 21
-34.22102912526565
 72
     1
 10
26.68931206301332
 20
-34.22102912526565
 11
26.69485905284544
 21
-34.21717229207672
 72
     1
 10
26.69485905284544
 20
-34.21717229207672
 11
26.92008983138356
 21
-34.05031081098665
 72
     1
 10
26.92008983138356
 20
-34.05031081098665
 11
29.94765922575427
 21
-34.05031081098665
 72
     1
 10
29.94765922575427
 20
-34.05031081098665
 11
30.04691327814091
 21
-34.1303844034297
 72
     1
 10
30.04691327814091
 20
-34.1303844034297
 11
30.07940718390263
 21
-34.14877225998386
 72
     1
 10
30.07940718390263
 20
-34.14877225998386
 11
30.12527514005931
 21
-34.15871601387883
 72
     1
 10
30.12527514005931
 20
-34.15871601387883
 11
30.169836568882
 21
-34.15356505713047
 72
     1
 10
30.169836568882
 20
-34.15356505713047
 11
30.20469822153434
 21
-34.13834747470573
 72
     1
 10
30.20469822153434
 20
-34.13834747470573
 11
30.2379994311755
 21
-34.11271214318337
 72
     1
 10
30.2379994311755
 20
-34.11271214318337
 11
30.31409220115617
 21
-34.05031081098665
 72
     1
 10
30.31409220115617
 20
-34.05031081098665
 11
31.55093294670088
 21
-34.05031081098665
 72
     1
 10
31.55093294670088
 20
-34.05031081098665
 11
31.65018699908751
 21
-34.1303844034297
 72
     1
 10
31.65018699908751
 20
-34.1303844034297
 11
31.69049686961168
 21
-34.15164167443587
 72
     1
 10
31.69049686961168
 20
-34.15164167443587
 11
31.72812554347949
 21
-34.15869611815711
 72
     1
 10
31.72812554347949
 20
-34.15869611815711
 11
31.76202519777614
 21
-34.15621897107118
 72
     1
 10
31.76202519777614
 20
-34.15621897107118
 11
31.79445622063729
 21
-34.14560617112093
 72
     1
 10
31.79445622063729
 20
-34.14560617112093
 11
31.83433286071256
 21
-34.11840366196893
 72
     1
 10
31.83433286071256
 20
-34.11840366196893
 11
31.91736592210274
 21
-34.05031081098665
 72
     1
 10
31.91736592210274
 20
-34.05031081098665
 11
34.27551841574873
 21
-34.05031081098665
 72
     1
 10
34.27551841574873
 20
-34.05031081098665
 11
36.45931499709463
 21
-35.8827337169602
 72
     1
 10
36.45931499709463
 20
-35.8827337169602
 11
35.31395600200526
 21
-36.84380402730527
 72
     1
 10
35.31395600200526
 20
-36.84380402730527
 11
35.31395600200525
 21
-41.76433939163849
 72
     1
 10
35.31395600200525
 20
-41.76433939163849
 11
34.4342508198439
 21
-42.11562261559239
 72
     1
 10
34.4342508198439
 20
-42.11562261559239
 11
33.3341223405734
 21
-42.11562261559239
 72
     1
 10
33.3341223405734
 20
-42.11562261559239
 11
32.32567146642078
 21
-42.52799849061495
 72
     1
 10
32.32567146642078
 20
-42.52799849061495
 11
31.22554298715034
 21
-42.25308117655868
 72
     1
 10
31.22554298715034
 20
-42.25308117655868
 11
30.12541490532897
 21
-42.63491091817061
 72
     1
 10
30.12541490532897
 20
-42.63491091817061
 11
29.16280263501068
 21
-42.63491091817061
 72
     1
 10
29.16280263501068
 20
-42.63491091817061
 11
28.27658803774972
 21
-42.97092088329551
 72
     1
 10
28.27658803774972
 20
-42.97092088329551
 11
27.57372825327536
 21
-43.87203873536196
 72
     1
 10
27.57372825327536
 20
-43.87203873536196
 11
27.23757809437421
 21
-44.65097128529118
 72
     1
 10
27.23757809437421
 20
-44.65097128529118
 11
26.29024535866739
 21
-44.89534208168942
 72
     1
 10
26.29024535866739
 20
-44.89534208168942
 11
25.54154657290951
 21
-45.33826447436999
 72
     1
 10
25.54154657290951
 20
-45.33826447436999
 11
24.60949337181421
 21
-45.33826447436999
 72
     1
 10
24.60949337181421
 20
-45.33826447436999
 11
23.9066335873398
 21
-44.95643492488176
 72
     1
 10
23.9066335873398
 20
-44.95643492488176
 11
23.26489233876043
 21
-44.95643492488176
 72
     1
 10
23.26489233876043
 20
-44.95643492488176
 11
22.79122597090702
 21
-44.10113665717864
 72
     1
 10
22.79122597090702
 20
-44.10113665717864
 11
22.19532292871281
 21
-43.58184835460039
 72
     1
 10
22.19532292871281
 20
-43.58184835460039
 11
21.85917276981166
 21
-42.49745216508062
 72
     1
 10
21.85917276981166
 20
-42.49745216508062
 11
20.95767863793924
 21
-41.99343712133142
 72
     1
 10
20.95767863793924
 20
-41.99343712133142
 11
19.75059341638854
 21
-41.99343712133142
 72
     1
 10
19.75059341638854
 20
-41.99343712133142
 11
18.8338197499047
 21
-41.58106105418517
 72
     1
 10
18.8338197499047
 20
-41.58106105418517
 11
17.53505692323614
 21
-41.82543204270712
 72
     1
 10
17.53505692323614
 20
-41.82543204270712
 11
16.72524039648158
 21
-41.82543204270712
 72
     1
 10
16.72524039648158
 20
-41.82543204270712
 11
15.65567098643402
 21
-41.50469514428752
 72
     1
 10
15.65567098643402
 20
-41.50469514428752
 11
14.64905370434022
 21
-41.74906613280947
 72
     1
 10
14.64905370434022
 20
-41.74906613280947
 11
14.64905370434023
 21
-36.84380402730527
 72
     1
 10
14.64905370434023
 20
-36.84380402730527
 11
15.79441269942961
 21
-35.8827337169602
 72
     1
 10
15.79441269942961
 20
-35.8827337169602
 11
13.6106161180837
 21
-34.05031081098665
 72
     1
 10
13.6106161180837
 20
-34.05031081098665
 11
18.0456437842428
 21
-34.05031081098665
 72
     1
 10
18.0456437842428
 20
-34.05031081098665
 11
18.14245388363068
 21
-34.12970178562772
 72
     1
 10
18.14245388363068
 20
-34.12970178562772
 11
18.20139573720348
 21
-34.15629928245161
 72
     1
 10
18.20139573720348
 20
-34.15629928245161
 11
18.25010701617635
 21
-34.15712203345309
 72
     1
 10
18.25010701617635
 20
-34.15712203345309
 11
18.31282270725712
 21
-34.13038440343039
 72
     1
 10
18.31282270725712
 20
-34.13038440343039
 11
18.41207675964466
 21
-34.05031081098665
 72
     1
 10
18.41207675964466
 20
-34.05031081098665
 11
19.64891750518937
 21
-34.05031081098665
 72
     1
 10
19.64891750518937
 20
-34.05031081098665
 11
19.74572760457689
 21
-34.12970178562742
 72
     1
 10
19.74572760457689
 20
-34.12970178562742
 11
19.79180913350898
 21
-34.15317183285014
 72
     1
 10
19.79180913350898
 20
-34.15317183285014
 11
19.83135875376304
 21
-34.15886094461797
 72
     1
 10
19.83135875376304
 20
-34.15886094461797
 11
19.87974392542504
 21
-34.15025463436966
 72
     1
 10
19.87974392542504
 20
-34.15025463436966
 11
19.93759546672697
 21
-34.11303997056108
 72
     1
 10
19.93759546672697
 20
-34.11303997056108
 11
20.01535048059127
 21
-34.05031081098665
 72
     1
 10
20.01535048059127
 20
-34.05031081098665
 11
23.04291987496173
 21
-34.05031081098665
 72
     1
 10
23.04291987496173
 20
-34.05031081098665
 11
23.27196808330922
 21
-34.22000042238855
 72
     1
 10
23.27196808330922
 20
-34.22000042238855
 11
23.28012796021328
 21
-34.22170956510203
 72
     1
 10
23.28012796021328
 20
-34.22170956510203
 11
23.28535680423745
 21
-34.21861695307992
 72
     1
 10
23.28535680423745
 20
-34.21861695307992
 11
23.2878802958409
 21
-34.21198571368491
 72
     1
 10
23.2878802958409
 20
-34.21198571368491
 11
23.2878802958409
 21
-34.04724783225605
 72
     1
 10
23.2878802958409
 20
-34.04724783225605
 11
23.69213111903057
 21
-34.04724783225605
 72
     1
 10
23.69213111903057
 20
-34.04724783225605
 11
23.69213111903057
 21
-34.06161407882246
 72
     1
 10
23.69213111903057
 20
-34.06161407882246
 11
23.80308874589304
 21
-34.06161407882246
 72
     1
 10
23.80308874589304
 20
-34.06161407882246
 11
23.80308874589304
 21
-33.9646365496407
 72
     1
 10
23.80308874589304
 20
-33.9646365496407
 11
24.46407359465985
 21
-33.9646365496407
 72
     1
 10
24.46407359465985
 20
-33.9646365496407
 11
24.46407359465985
 21
-34.62562139840767
 72
     1
 10
24.46407359465985
 20
-34.62562139840767
 11
24.36709606547815
 21
-34.62562139840767
 72
     1
 10
24.36709606547815
 20
-34.62562139840767
 11
24.36709606547815
 21
-34.73657902527007
 72
     1
 10
24.36709606547815
 20
-34.73657902527007
 11
24.38133903187944
 21
-34.73657902527007
 72
     1
 10
24.38133903187944
 20
-34.73657902527007
 11
24.38133903187944
 21
-35.14750251829914
 72
     1
 10
24.38133903187944
 20
-35.14750251829914
 11
24.21660115045061
 21
-35.14750251829914
 72
     1
 10
24.21660115045061
 20
-35.14750251829914
 11
24.21044771560687
 21
-35.14962679103122
 72
     1
 10
24.21044771560687
 20
-35.14962679103122
 11
24.20666685499663
 21
-35.15658192830887
 72
     1
 10
24.20666685499663
 20
-35.15658192830887
 11
24.20944523822485
 21
-35.16457394024246
 72
     1
 10
24.20944523822485
 20
-35.16457394024246
 11
24.21975091392563
 21
-35.17848461241367
 72
     1
 10
24.21975091392563
 20
-35.17848461241367
 11
24.37997868529509
 21
-35.39476116379758
 72
     1
 10
24.37997868529509
 20
-35.39476116379758
 11
24.37998713426535
 21
-35.83416654951791
 72
     1
 10
24.37998713426535
 20
-35.83416654951791
 11
24.37999189936927
 21
-35.99502040641922
 72
     1
 10
24.37999189936927
 20
-35.99502040641922
 11
24.38001708345243
 21
-36.84515022085239
 72
     1
 10
24.38001708345243
 20
-36.84515022085239
 11
24.02055813764093
 21
-36.4167637307914
 72
     1
 10
24.02055813764093
 20
-36.4167637307914
 11
22.84177158648515
 21
-36.4167637307914
 72
     1
 10
22.84177158648515
 20
-36.4167637307914
 11
22.84177158648515
 21
-37.01974082119746
 72
     1
 10
22.84177158648515
 20
-37.01974082119746
 11
24.02055813764092
 21
-37.01974082119745
 72
     1
 10
24.02055813764092
 20
-37.01974082119745
 11
24.38003494656117
 21
-37.44814859968246
 72
     1
 10
24.38003494656117
 20
-37.44814859968246
 11
24.38005441749257
 21
-38.10542165555121
 72
     1
 10
24.38005441749257
 20
-38.10542165555121
 11
24.20686091069754
 21
-38.33919944607759
 72
     1
 10
24.20686091069754
 20
-38.33919944607759
 11
24.20596499890787
 21
-38.34965070148938
 72
     1
 10
24.20596499890787
 20
-38.34965070148938
 11
24.21489607535269
 21
-38.35515227137023
 72
     1
 10
24.21489607535269
 20
-38.35515227137023
 11
24.38005441749257
 21
-38.35515227137023
 72
     1
 10
24.38005441749257
 20
-38.35515227137023
 11
24.38005441749257
 21
-38.77944283833364
 72
     1
 10
24.38005441749257
 20
-38.77944283833364
 11
24.36552790912274
 21
-38.77944283833364
 72
     1
 10
24.36552790912274
 20
-38.77944283833364
 11
24.36552790912274
 21
-38.89068366249279
 72
     1
 10
24.36552790912274
 20
-38.89068366249279
 11
24.46275295417971
 21
-38.89068366249279
 72
     1
 10
24.46275295417971
 20
-38.89068366249279
 11
24.4627937235645
 21
-39.55335554124847
 72
     1
 10
24.4627937235645
 20
-39.55335554124847
 11
23.97761832410767
 21
-39.55335554375674
 72
     1
 10
23.97761832410767
 20
-39.55335554375674
 11
23.97761832410767
 21
-39.74684930028715
 72
     1
 10
23.97761832410767
 20
-39.74684930028715
 11
24.0570868069326
 21
-39.74684930028715
 72
     1
 10
24.0570868069326
 20
-39.74684930028715
 11
24.0570868069326
 21
-39.85128058518461
 72
     1
 10
24.0570868069326
 20
-39.85128058518461
 11
23.97761832410767
 21
-39.85128058518461
 72
     1
 10
23.97761832410767
 20
-39.85128058518461
 11
23.97761832410767
 21
-40.04477434171502
 72
     1
 10
23.97761832410767
 20
-40.04477434171502
 11
24.12499220981635
 21
-40.04477434171502
 72
     1
 10
24.12499220981635
 20
-40.04477434171502
 11
24.12499220981635
 21
-40.32848480807508
 72
     1
 10
24.12499220981635
 20
-40.32848480807508
 11
23.91761949411792
 21
-40.32848480807508
 72
     1
 10
23.91761949411792
 20
-40.32848480807508
 11
23.89770736715971
 21
-40.33673268111682
 72
     1
 10
23.89770736715971
 20
-40.33673268111682
 11
23.88945949411785
 21
-40.35664480807503
 72
     1
 10
23.88945949411785
 20
-40.35664480807503
 11
23.88945949411786
 21
-41.65937370243696
 72
     1
 10
23.88945949411786
 20
-41.65937370243696
 11
23.77576786417415
 21
-41.78058687410078
 72
     1
 10
23.77576786417415
 20
-41.78058687410078
 11
23.6463388939528
 21
-41.95700603395208
 72
     1
 10
23.6463388939528
 20
-41.95700603395208
 11
23.56002613349797
 21
-42.11163944846257
 72
     1
 10
23.56002613349797
 20
-42.11163944846257
 11
23.47988298184838
 21
-42.30810314974223
 72
     1
 10
23.47988298184838
 20
-42.30810314974223
 11
23.41642337949894
 21
-42.57201525054653
 72
     1
 10
23.41642337949894
 20
-42.57201525054653
 11
23.3982211613551
 21
-42.81262072205357
 72
     1
 10
23.3982211613551
 20
-42.81262072205357
 11
23.41153207277435
 21
-43.01853238237156
 72
     1
 10
23.41153207277435
 20
-43.01853238237156
 11
23.45973575093518
 21
-43.25191434003158
 72
     1
 10
23.45973575093518
 20
-43.25191434003158
 11
23.51552033330075
 21
-43.41381830878158
 72
     1
 10
23.51552033330075
 20
-43.41381830878158
 11
23.59781326668247
 21
-43.58630409471046
 72
     1
 10
23.59781326668247
 20
-43.58630409471046
 11
23.69859585702571
 21
-43.7456614896216
 72
     1
 10
23.69859585702571
 20
-43.7456614896216
 11
23.79854841328532
 21
-43.87103472721979
 72
     1
 10
23.79854841328532
 20
-43.87103472721979
 11
23.93693532860254
 21
-44.00967496494535
 72
     1
 10
23.93693532860254
 20
-44.00967496494535
 11
24.09954013562416
 21
-44.1360320293309
 72
     1
 10
24.09954013562416
 20
-44.1360320293309
 11
24.2249034005467
 21
-44.2129256955058
 72
     1
 10
24.2249034005467
 20
-44.2129256955058
 11
24.33788748321635
 21
-44.26956271494804
 72
     1
 10
24.33788748321635
 20
-44.26956271494804
 11
24.49956890404557
 21
-44.3324385781571
 72
     1
 10
24.49956890404557
 20
-44.3324385781571
 11
24.6739233203782
 21
-44.37885630342936
 72
     1
 10
24.6739233203782
 20
-44.37885630342936
 11
24.89293720218376
 21
-44.40851547472202
 72
     1
 10
24.89293720218376
 20
-44.40851547472202
 11
25.05005307782961
 21
-44.41107757004977
 72
     1
 10
25.05005307782961
 20
-44.41107757004977
 11
25.23105200781977
 21
-44.39480092314372
 72
     1
 10
25.23105200781977
 20
-44.39480092314372
 11
25.34771388576588
 21
-44.37313357971293
 72
     1
 10
25.34771388576588
 20
-44.37313357971293
 11
25.47753771645467
 21
-44.33821057958185
 72
     1
 10
25.47753771645467
 20
-44.33821057958185
 11
25.59900771041506
 21
-44.29453127961267
 72
     1
 10
25.59900771041506
 20
-44.29453127961267
 11
25.77631692849562
 21
-44.20952047814697
 72
     1
 10
25.77631692849562
 20
-44.20952047814697
 11
25.92305708052806
 21
-44.11693689176555
 72
     1
 10
25.92305708052806
 20
-44.11693689176555
 11
26.03224536452502
 21
-44.03213186301251
 72
     1
 10
26.03224536452502
 20
-44.03213186301251
 11
26.17934913079533
 21
-43.89018737749384
 72
     1
 10
26.17934913079533
 20
-43.89018737749384
 11
26.28451594165715
 21
-43.76210253792593
 72
     1
 10
26.28451594165715
 20
-43.76210253792593
 11
26.37248348903628
 21
-43.62953764400668
 72
     1
 10
26.37248348903628
 20
-43.62953764400668
 11
26.46968538077791
 21
-43.43760944367579
 72
     1
 10
26.46968538077791
 20
-43.43760944367579
 11
26.53403179267898
 21
-43.2564854998083
 72
     1
 10
26.53403179267898
 20
-43.2564854998083
 11
26.57363955022911
 21
-43.08415931182962
 72
     1
 10
26.57363955022911
 20
-43.08415931182962
 11
26.59454484499402
 21
-42.89863547573321
 72
     1
 10
26.59454484499402
 20
-42.89863547573321
 11
26.59402151336037
 21
-42.71738527742998
 72
     1
 10
26.59402151336037
 20
-42.71738527742998
 11
26.57237162196641
 21
-42.53382265978252
 72
     1
 10
26.57237162196641
 20
-42.53382265978252
 11
26.53863076899102
 21
-42.38499680446828
 72
     1
 10
26.53863076899102
 20
-42.38499680446828
 11
26.48949324489268
 21
-42.23651443551246
 72
     1
 10
26.48949324489268
 20
-42.23651443551246
 11
26.33485819111171
 21
-41.93546458744903
 72
     1
 10
26.33485819111171
 20
-41.93546458744903
 11
26.19054576359315
 21
-41.74746346863216
 72
     1
 10
26.19054576359315
 20
-41.74746346863216
 11
26.02114121454823
 21
-41.58377445013585
 72
     1
 10
26.02114121454823
 20
-41.58377445013585
 11
26.02114121454823
 21
-40.35664480807503
 72
     1
 10
26.02114121454823
 20
-40.35664480807503
 11
26.01289334150637
 21
-40.33673268111682
 72
     1
 10
26.01289334150637
 20
-40.33673268111682
 11
25.99298121454816
 21
-40.32848480807508
 72
     1
 10
25.99298121454816
 20
-40.32848480807508
 11
25.78560849884973
 21
-40.32848480807508
 72
     1
 10
25.78560849884973
 20
-40.32848480807508
 11
25.78560849884973
 21
-40.04477434171502
 72
     1
 10
25.78560849884973
 20
-40.04477434171502
 11
25.93298238455841
 21
-40.04477434171502
 72
     1
 10
25.93298238455841
 20
-40.04477434171502
 11
25.93298238455841
 21
-39.85128058518461
 72
     1
 10
25.93298238455841
 20
-39.85128058518461
 11
25.85351390173349
 21
-39.85128058518461
 72
     1
 10
25.85351390173349
 20
-39.85128058518461
 11
25.85351390173349
 21
-39.74684930028715
 72
     1
 10
25.85351390173349
 20
-39.74684930028715
 11
25.93298238455841
 21
-39.74684930028715
 72
     1
 10
25.93298238455841
 20
-39.74684930028715
 11
25.93298238455841
 21
-39.55335554375674
 72
     1
 10
25.93298238455841
 20
-39.55335554375674
 11
25.50025675216583
 21
-39.55335554375674
 72
     1
 10
25.50025675216583
 20
-39.55335554375674
 11
25.50025675216583
 21
-38.89068366249279
 72
     1
 10
25.50025675216583
 20
-38.89068366249279
 11
25.59748179722259
 21
-38.89068366249279
 72
     1
 10
25.59748179722259
 20
-38.89068366249279
 11
25.59748179722259
 21
-38.77944283833364
 72
     1
 10
25.59748179722259
 20
-38.77944283833364
 11
25.58320247847941
 21
-38.77944283833364
 72
     1
 10
25.58320247847941
 20
-38.77944283833364
 11
25.58320247847941
 21
-38.35515227137023
 72
     1
 10
25.58320247847941
 20
-38.35515227137023
 11
25.74836082061929
 21
-38.35515227137023
 72
     1
 10
25.74836082061929
 20
-38.35515227137023
 11
25.75729189706411
 21
-38.34965070148938
 72
     1
 10
25.75729189706411
 20
-38.34965070148938
 11
25.75729189706411
 21
-38.33919944607759
 72
     1
 10
25.75729189706411
 20
-38.33919944607759
 11
25.58320247847941
 21
-38.10542165555121
 72
     1
 10
25.58320247847941
 20
-38.10542165555121
 11
25.58280611819592
 21
-36.5908374743682
 72
     1
 10
25.58280611819592
 20
-36.5908374743682
 11
25.94269875833106
 21
-37.01974082119747
 72
     1
 10
25.94269875833106
 20
-37.01974082119747
 11
27.04684811058616
 21
-37.01974082119747
 72
     1
 10
27.04684811058616
 20
-37.01974082119747
 11
27.04684811058616
 21
-36.41676373079141
 72
     1
 10
27.04684811058616
 20
-36.41676373079141
 11
25.94269875833106
 21
-36.4167637307914
 97
        0
 75
     1
 76
     1
 52
0.0
 41
5.0
 77
     0
 78
     6
 53
0.0
 43
14.64905370434022
 44
-45.33826447436999
 45
1.25
 46
1.25
 79
     2
 49
1.25
 49
-1.25
 53
0.0
 43
14.64905370434022
 44
-44.86951447436999
 45
1.25
 46
1.25
 79
     2
 49
1.25
 49
-1.25
 53
0.0
 43
14.64905370434022
 44
-44.40076447436999
 45
1.25
 46
1.25
 79
     2
 49
1.25
 49
-1.25
 53
90.0
 43
14.80530370434022
 44
-44.24451447436999
 45
-1.249999999999999
 46
1.25
 79
     2
 49
1.25
 49
-1.25
 53
90.0
 43
15.27405370434022
 44
-44.24451447436999
 45
-1.249999999999999
 46
1.25
 79
     2
 49
1.25
 49
-1.25
 53
90.0
 43
15.74280370434022
 44
-44.24451447436999
 45
-1.249999999999999
 46
1.25
 79
     2
 49
1.25
 49
-1.25
 98
        1
 10
0.0
 20
0.0
1001
GradientColor1ACI
1070
     5
1001
GradientColor2ACI
1070
     2
1001
ACAD
1010
78.05847324356273
1020
25.50956238854241
1030
0.0
  0
VIEWPORT
  5
A21C6
102
{ACAD_XDICTIONARY
360
A21C7
102
}
330
A21B8
100
AcDbEntity
 67
     1
  8
0
100
AcDbViewport
 10
5.379608251091793
 20
3.879980799414523
 30
0.0
 40
21.92908682225825
 41
10.60034404030225
 68
     1
 69
     1
 12
5.379608251091793
 22
3.879980799414523
 13
0.0
 23
0.0
 14
0.5
 24
0.5
 15
0.5
 25
0.5
 16
0.0
 26
0.0
 36
1.0
 17
0.0
 27
0.0
 37
0.0
 42
50.0
 43
0.0
 44
0.0
 45
10.60034404030225
 50
0.0
 51
0.0
 72
  1000
 90
   819232
  1

281
     0
 71
     1
 74
     0
110
0.0
120
0.0
130
0.0
111
1.0
121
0.0
131
0.0
112
0.0
122
1.0
132
0.0
 79
     0
146
0.0
170
     0
 61
     5
348
9F
292
     1
282
     1
141
0.0
142
0.0
 63
   250
421
  3355443
  0
VIEWPORT
  5
A21CA
102
{ACAD_XDICTIONARY
360
A21CB
102
}
330
A21B8
100
AcDbEntity
 67
     1
  8
HI No Print
100
AcDbViewport
 10
5.14477344054908
 20
3.904943799045813
 30
0.0
 40
10.25899498546174
 41
7.782805874275823
 68
     2
 69
     2
 12
32.47163425280626
 22
-37.50851640909362
 13
0.0
 23
0.0
 14
0.5
 24
0.5
 15
0.5
 25
0.5
 16
0.0
 26
0.0
 36
1.0
 17
0.0
 27
0.0
 37
0.0
 42
50.0
 43
0.0
 44
0.0
 45
39.01906159568779
 50
0.0
 51
0.0
 72
  1000
 90
   557664
  1

281
     0
 71
     1
 74
     0
110
0.0
120
0.0
130
0.0
111
1.0
121
0.0
131
0.0
112
0.0
122
1.0
132
0.0
 79
     0
146
0.0
170
     0
 61
     5
348
9F
292
     1
282
     1
141
0.0
142
0.0
 63
   250
421
  3355443
  0
ENDSEC
  0
SECTION
  2
OBJECTS
  0
DICTIONARY
  5
C
330
0
100
AcDbDictionary
281
     1
  3
ACAD_CIP_PREVIOUS_PRODUCT_INFO
350
5C44A
  3
ACAD_COLOR
350
73
  3
ACAD_DETAILVIEWSTYLE
350
5C43F
  3
ACAD_GROUP
350
D
  3
ACAD_IMAGE_DICT
350
620BA
  3
ACAD_IMAGE_VARS
350
9DA
  3
ACAD_LAYOUT
350
1A
  3
ACAD_MATERIAL
350
72
  3
ACAD_MLEADERSTYLE
350
A33
  3
ACAD_MLINESTYLE
350
17
  3
ACAD_PLOTSETTINGS
350
19
  3
ACAD_PLOTSTYLENAME
350
E
  3
ACAD_RENDER_ACTIVE_RAPIDRT_SETTINGS
350
A0A35
  3
ACAD_RENDER_ACTIVE_SETTINGS
350
A15E5
  3
ACAD_SCALELIST
350
A11
  3
ACAD_SECTIONVIEWSTYLE
350
5C43D
  3
ACAD_TABLESTYLE
350
86
  3
ACAD_VISUALSTYLE
350
99
  3
ACAD_WIPEOUT_VARS
350
14083
  3
AcadDim
350
45186
  3
AcadDim_CRX
350
95AB0
  3
AcAec
350
5C6BE
  3
ACDB_RECOMPOSE_DATA
350
AE7F6
  3
AcDbVariableDictionary
350
66
  3
AEC_CLASSIFICATION_SYSTEM_DEFS
350
F6
  3
AEC_CLEANUP_GROUP_DEFS
350
5C691
  3
AEC_DISP_REP_CONFIGURATIONS
350
5C68F
  3
AEC_DISP_REP_SETS
350
5C686
  3
AEC_DISP_REPS
350
5C560
  3
AEC_DISPLAY_PROPS_DEFAULTS
350
5C562
  3
AEC_LAYERKEY_STYLES
350
5C693
  3
AEC_PROPERTY_SET_DEFS
350
F7
  3
AEC_VARS
350
5C565
  0
DICTIONARY
  5
B51
330
8
100
AcDbDictionary
280
     1
281
     1
  0
DICTIONARY
  5
E7
330
2
100
AcDbDictionary
280
     1
281
     1
  3
ACAD_LAYERFILTERS
360
1DD06
  3
ACAD_LAYERSTATES
360
E8
  3
ACLYDICTIONARY
360
1DD05
  0
DICTIONARY
  5
A6C
330
10
100
AcDbDictionary
280
     1
281
     1
  3
ADSK_XREC_LAYER_RECONCILED
360
A6D
  0
DICTIONARY
  5
9EC2C
330
9EC2B
100
AcDbDictionary
280
     1
281
     1
  0
DICTIONARY
  5
AE1AF
330
AE1AE
100
AcDbDictionary
280
     1
281
     1
  0
DICTIONARY
  5
A62
330
1F
100
AcDbDictionary
280
     1
281
     1
  3
ACAD_SORTENTS
360
A63
  0
DICTIONARY
  5
A21AF
330
A21AE
100
AcDbDictionary
280
     1
281
     1
  3
ASDK_XREC_ANNOTATION_SCALE_INFO
360
A21B0
  0
DICTIONARY
  5
A21B3
330
A21B2
100
AcDbDictionary
280
     1
281
     1
  3
ASDK_XREC_ANNOTATION_SCALE_INFO
360
A21B4
  0
DICTIONARY
  5
A09BD
330
A06C6
100
AcDbDictionary
280
     1
281
     1
  3
ACAD_MTEXT_2008_RT
360
AE7F5
  0
DICTIONARY
  5
A2288
330
A2287
100
AcDbDictionary
280
     1
281
     1
  0
DICTIONARY
  5
ADFE1
330
ADFE0
100
AcDbDictionary
280
     1
281
     1
  0
DICTIONARY
  5
A21C7
330
A21C6
100
AcDbDictionary
280
     1
281
     1
  3
ASDK_XREC_ANNOTATION_SCALE_INFO
360
A21C8
  0
DICTIONARY
  5
A21CB
330
A21CA
100
AcDbDictionary
280
     1
281
     1
  3
ASDK_XREC_ANNOTATION_SCALE_INFO
360
A21CC
  0
XRECORD
  5
5C44A
102
{ACAD_REACTORS
330
C
102
}
330
C
100
AcDbXrecord
280
     1
300
ACD
300
2015
300
ACD_F_S
  0
DICTIONARY
  5
73
102
{ACAD_REACTORS
330
C
102
}
330
C
100
AcDbDictionary
281
     1
  0
DICTIONARY
  5
5C43F
102
{ACAD_REACTORS
330
C
102
}
330
C
100
AcDbDictionary
281
     1
  3
Imperial24
350
5C440
  0
DICTIONARY
  5
D
102
{ACAD_REACTORS
330
C
102
}
330
C
100
AcDbDictionary
281
     1
  3
*A1
350
AE589
  3
*A2
350
AE6ED
  0
DICTIONARY
  5
620BA
102
{ACAD_REACTORS
330
C
102
}
330
C
100
AcDbDictionary
281
     1
  0
RASTERVARIABLES
  5
9DA
102
{ACAD_REACTORS
330
C
102
}
330
C
100
AcDbRasterVariables
 90
        0
 70
     1
 71
     1
 72
     5
  0
DICTIONARY
  5
1A
102
{ACAD_REACTORS
330
C
102
}
330
C
100
AcDbDictionary
281
     1
  3
8.5 X 11
350
A21A1
  3
A4
350
A21B9
  3
Model
350
22
  0
DICTIONARY
  5
72
102
{ACAD_REACTORS
330
C
102
}
330
C
100
AcDbDictionary
281
     1
  3
ByBlock
350
97
  3
ByLayer
350
96
  3
Global
350
98
  0
DICTIONARY
  5
A33
102
{ACAD_REACTORS
330
C
102
}
330
C
100
AcDbDictionary
281
     1
  3
Standard
350
A34
  0
DICTIONARY
  5
17
102
{ACAD_REACTORS
330
C
102
}
330
C
100
AcDbDictionary
281
     1
  3
Standard
350
18
  0
DICTIONARY
  5
19
102
{ACAD_REACTORS
330
C
102
}
330
C
100
AcDbDictionary
281
     1
  3
500 - 24x36
350
E0
  3
500 - 30x42 Landscape
350
DE
  3
500 - 30x42 Portrait
350
DF
  3
6200 8.5x11
350
1052
  3
9800 - 11x17 Reduced
350
E1
  3
K550 - 8x11 Reduced
350
E2
  0
ACDBDICTIONARYWDFLT
  5
E
102
{ACAD_REACTORS
330
C
102
}
330
C
100
AcDbDictionary
281
     1
  3
Normal
350
F
100
AcDbDictionaryWithDefault
340
F
  0
ACAD_PROXY_OBJECT
  5
A0A35
102
{ACAD_REACTORS
330
C
102
}
330
C
100
AcDbProxyObject
 90
      499
 91
      769
 95
  3276827
 70
     0
162
               534
311
419340194019001A401D401B4024690401C001C001B001A4019401CC008000D4008001C8019401B80190019401C801A401B8019C008001B0019401D8019401B001CC00
161
               201
310
40AE40E4150140502000000000000021000000000000000840CC
 94
        0
  0
MENTALRAYRENDERSETTINGS
  5
A15E5
102
{ACAD_XDICTIONARY
360
A15E6
102
}
102
{ACAD_REACTORS
330
C
102
}
330
C
100
AcDbRenderSettings
 90
        2
  1
Medium
290
     1
290
     1
290
     1
290
     1
  1

  1

 90
        0
100
AcDbMentalRayRenderSettings
 90
        2
 90
        0
 90
        1
 70
     2
 40
3.0
 40
3.0
 40
0.0500000007450581
 40
0.0500000007450581
 40
0.0500000007450581
 40
0.0500000007450581
 70
     0
290
     0
290
     1
 90
        5
 90
        5
 90
        5
290
     0
 90
      500
290
     0
 40
1.0
 90
    10000
 90
        5
 90
        5
 90
        5
290
     0
 90
      200
290
     0
290
     0
290
     0
 40
1.0
 40
1.0
 40
1500.0
 70
     0
 70
     0
 40
10.0
 70
     0
 70
     0
290
     0
  1

 90
       32
 70
     0
 90
     1048
290
     0
 40
1.0
  0
DICTIONARY
  5
A11
102
{ACAD_REACTORS
330
C
102
}
330
C
100
AcDbDictionary
281
     1
  3
*A1
350
4D48B
  3
*A2
350
4D48C
  3
*A3
350
5C55A
  3
*A4
350
5C55B
  3
A0
350
A12
  3
A1
350
1DC91
  3
A2
350
1DC92
  3
A3
350
1DC93
  3
A4
350
1DC94
  3
A5
350
1DC95
  3
A6
350
1DC96
  3
A7
350
1DC97
  3
A8
350
1DC98
  3
A9
350
1DC99
  3
B0
350
1DC9A
  3
B1
350
1DC9B
  3
B2
350
1DC9C
  3
B3
350
1DC9D
  3
B4
350
1DC9E
  3
B5
350
1DC9F
  3
B6
350
1DCA0
  3
B7
350
1DCA1
  3
B8
350
1DCA2
  3
B9
350
1DCA3
  3
C0
350
1DCA4
  3
C1
350
1DCA5
  3
C2
350
1DCA6
  3
C3
350
1DCA7
  3
C4
350
1DCA8
  3
C5
350
1DCA9
  3
C6
350
1DCAA
  3
C7
350
1DCAB
  3
C8
350
1DCAC
  3
C9
350
1DCAD
  3
D0
350
1DCAE
  3
D1
350
1DCAF
  3
D2
350
1DCB0
  0
DICTIONARY
  5
5C43D
102
{ACAD_REACTORS
330
C
102
}
330
C
100
AcDbDictionary
281
     1
  3
Imperial24
350
5C43E
  0
DICTIONARY
  5
86
102
{ACAD_REACTORS
330
C
102
}
330
C
100
AcDbDictionary
281
     1
  3
Standard
350
87
  0
DICTIONARY
  5
99
102
{ACAD_REACTORS
330
C
102
}
330
C
100
AcDbDictionary
281
     1
  3
2dWireframe
350
9F
  3
3D Hidden
350
A1
  3
3dWireframe
350
A0
  3
Basic
350
9E
  3
Brighten
350
A5
  3
ColorChange
350
A9
  3
Conceptual
350
A2
  3
Dim
350
A4
  3
EdgeColorOff
350
5C43C
  3
Facepattern
350
A8
  3
Flat
350
9A
  3
FlatWithEdges
350
9B
  3
Gouraud
350
9C
  3
GouraudWithEdges
350
9D
  3
Hidden
350
5C434
  3
JitterOff
350
5C43A
  3
Linepattern
350
A7
  3
OverhangOff
350
5C43B
  3
Realistic
350
A3
  3
Shaded
350
5C439
  3
Shaded with edges
350
5C438
  3
Shades of Gray
350
5C435
  3
Sketchy
350
5C436
  3
Thicken
350
A6
  3
Wireframe
350
5C433
  3
X-Ray
350
5C437
  0
WIPEOUTVARIABLES
  5
14083
102
{ACAD_REACTORS
330
C
102
}
330
C
100
AcDbWipeoutVariables
 70
     1
  0
XRECORD
  5
45186
102
{ACAD_REACTORS
330
C
102
}
330
C
100
AcDbXrecord
280
     1
 90
   990106
  3

 60
     0
 61
     0
 62
     1
 63
     3
 64
     0
 65
     0
 66
     0
 67
     3
 68
     1
 69
     0
 70
     0
 71
     0
 72
     0
 40
0.0
170
     0
  0
XRECORD
  5
95AB0
102
{ACAD_REACTORS
330
C
102
}
330
C
100
AcDbXrecord
280
     1
 90
   990106
  3

 60
     0
 61
     0
 62
     1
 63
     3
 64
     0
 65
     0
 66
     0
 67
     3
 68
     1
 69
     0
 70
     0
 71
     0
 72
     0
 40
0.0
170
     0
  0
DICTIONARY
  5
5C6BE
102
{ACAD_REACTORS
330
C
102
}
330
C
100
AcDbDictionary
281
     1
  3
AcAecLayerManager
350
5C6BF
  0
XRECORD
  5
AE7F6
102
{ACAD_REACTORS
330
C
102
}
330
C
100
AcDbXrecord
280
     1
 90
        1
330
87
330
5C43E
330
5C440
330
A06C6
330
ADFE0
  0
DICTIONARY
  5
66
102
{ACAD_REACTORS
330
C
102
}
330
C
100
AcDbDictionary
281
     1
  3
CANNOSCALE
350
B5D
  3
CMLEADERSTYLE
350
B5C
  3
CTABLESTYLE
350
89
  3
CVIEWDETAILSTYLE
350
66F55
  3
CVIEWSECTIONSTYLE
350
66F56
  3
DIMASSOC
350
67
  3
HIDETEXT
350
6B
  3
HPCOLOR
350
9D9A7
  3
HPTRANSPARENCY
350
9D9A6
  3
LAYEREVAL
350
25751
  3
LAYERNOTIFY
350
25752
  3
LIGHTINGUNITS
350
F79
  3
MSLTSCALE
350
F78
  0
DICTIONARY
  5
F6
102
{ACAD_REACTORS
330
C
102
}
330
C
100
AcDbDictionary
281
     1
  0
DICTIONARY
  5
5C691
102
{ACAD_REACTORS
330
C
102
}
330
C
100
AcDbDictionary
281
     1
  3
Standard
350
5C692
  0
DICTIONARY
  5
5C68F
102
{ACAD_REACTORS
330
C
102
}
330
C
100
AcDbDictionary
281
     1
  3
Medium Detail
350
5C6A8
  3
Standard
350
5C690
  0
DICTIONARY
  5
5C686
102
{ACAD_REACTORS
330
C
102
}
330
C
100
AcDbDictionary
281
     1
  3
Elevation
350
5C68A
  3
Model
350
5C687
  3
Model High Detail
350
5C68E
  3
Model Low Detail
350
5C68D
  3
Plan
350
5C688
  3
Plan Diagnostic
350
5C6AB
  3
Plan High Detail
350
5C68C
  3
Plan Low Detail
350
5C68B
  3
Reflected
350
5C689
  3
Section_Elev
350
5C6AE
  0
DICTIONARY
  5
5C560
102
{ACAD_REACTORS
330
C
102
}
330
C
100
AcDbDictionary
281
     1
  3
AecDbDispRep2dSection
350
5C564
  3
AecDbDispRepAnchor
350
5C568
  3
AecDbDispRepAnchorBubToGrid
350
5C604
  3
AecDbDispRepAnchorBubToGridMdl
350
5C621
  3
AecDbDispRepAnchorBubToGridRcp
350
5C608
  3
AecDbDispRepAnchorEntToNode
350
5C569
  3
AecDbDispRepAnchorExtendedTagToEnt
350
5C56B
  3
AecDbDispRepAnchorTagToEnt
350
5C561
  3
AecDbDispRepBdgElevLineModel
350
5C61D
  3
AecDbDispRepBdgElevLinePlan
350
5C5B4
  3
AecDbDispRepBdgElevLinePlan100
350
5C5B8
  3
AecDbDispRepBdgElevLinePlan50
350
5C5F6
  3
AecDbDispRepBdgElevLineRcp
350
5C60E
  3
AecDbDispRepBdgSectionLineModel
350
5C615
  3
AecDbDispRepBdgSectionLinePlan
350
5C5C6
  3
AecDbDispRepBdgSectionLinePlan100
350
5C5BA
  3
AecDbDispRepBdgSectionLinePlan50
350
5C5E9
  3
AecDbDispRepBdgSectionLineRcp
350
5C61B
  3
AecDbDispRepBdgSectionModel
350
5C610
  3
AecDbDispRepBdgSectionSubDiv
350
5C611
  3
AecDbDispRepCeilingGrid
350
5C5BE
  3
AecDbDispRepCeilingGridModel
350
5C613
  3
AecDbDispRepCeilingGridPlan100
350
5C5B6
  3
AecDbDispRepCeilingGridPlan50
350
5C5F0
  3
AecDbDispRepCeilingGridRcp
350
5C606
  3
AecDbDispRepClipVolModel
350
5C56D
  3
AecDbDispRepClipVolPlan
350
5C573
  3
AecDbDispRepClipVolResSubDiv
350
5C579
  3
AecDbDispRepClipVolResult
350
5C580
  3
AecDbDispRepColumnGrid
350
5C5C8
  3
AecDbDispRepColumnGridModel
350
5C617
  3
AecDbDispRepColumnGridPlan100
350
5C5C0
  3
AecDbDispRepColumnGridPlan50
350
5C5E7
  3
AecDbDispRepColumnGridRcp
350
5C619
  3
AecDbDispRepCurtainWallLayoutModel
350
5C61F
  3
AecDbDispRepCurtainWallLayoutPlan
350
5C5BC
  3
AecDbDispRepCurtainWallLayoutPlan100
350
5C5CA
  3
AecDbDispRepCurtainWallLayoutPlan50
350
5C5F8
  3
AecDbDispRepCurtainWallUnitModel
350
5C60A
  3
AecDbDispRepCurtainWallUnitPlan
350
5C5C2
  3
AecDbDispRepCurtainWallUnitPlan100
350
5C5C4
  3
AecDbDispRepCurtainWallUnitPlan50
350
5C5E5
  3
AecDbDispRepDimGroupPlan
350
5C645
  3
AecDbDispRepDimGroupPlan100
350
5C60C
  3
AecDbDispRepDimGroupPlan50
350
5C62B
  3
AecDbDispRepDisplayTheme
350
5C588
  3
AecDbDispRepDoorElev
350
5C635
  3
AecDbDispRepDoorModel
350
5C62D
  3
AecDbDispRepDoorNominal
350
5C639
  3
AecDbDispRepDoorPlan
350
5C63F
  3
AecDbDispRepDoorPlan50
350
5C62F
  3
AecDbDispRepDoorPlanHekto
350
5C625
  3
AecDbDispRepDoorRcp
350
5C641
  3
AecDbDispRepDoorThresholdPlan
350
5C631
  3
AecDbDispRepDoorThresholdSymbolPlan
350
5C623
  3
AecDbDispRepEditInPlaceProfile
350
5C571
  3
AecDbDispRepEntRef
350
5C575
  3
AecDbDispRepLayoutCurve
350
5C577
  3
AecDbDispRepLayoutGrid2d
350
5C56F
  3
AecDbDispRepLayoutGrid3d
350
5C57B
  3
AecDbDispRepMaskBlockRef
350
5C57E
  3
AecDbDispRepMaskBlockRefRcp
350
5C633
  3
AecDbDispRepMassElemModel
350
5C592
  3
AecDbDispRepMassElemPlan100
350
5C63B
  3
AecDbDispRepMassElemPlan50
350
5C637
  3
AecDbDispRepMassElemRcp
350
5C63D
  3
AecDbDispRepMassElemSchem
350
5C58C
  3
AecDbDispRepMassGroupModel
350
5C590
  3
AecDbDispRepMassGroupPlan
350
5C58E
  3
AecDbDispRepMassGroupPlan100
350
5C643
  3
AecDbDispRepMassGroupPlan50
350
5C627
  3
AecDbDispRepMassGroupRcp
350
5C629
  3
AecDbDispRepMaterial
350
5C586
  3
AecDbDispRepMaterial$General Medium Detail
350
5C6B1
  3
AecDbDispRepMvBlockRef
350
5C581
  3
AecDbDispRepMvBlockRef$Plan
350
5C6B4
  3
AecDbDispRepMvBlockRefModel
350
5C57D
  3
AecDbDispRepMvBlockRefPlan100
350
5C5CC
  3
AecDbDispRepMvBlockRefPlan50
350
5C5EB
  3
AecDbDispRepMvBlockRefRcp
350
5C64F
  3
AecDbDispRepOpening
350
5C64D
  3
AecDbDispRepOpeningModel
350
5C647
  3
AecDbDispRepOpeningPlan100
350
5C650
  3
AecDbDispRepOpeningPlan50
350
5C649
  3
AecDbDispRepOpeningPlanReflected
350
5C64B
  3
AecDbDispRepOpeningSillPlan
350
5C652
  3
AecDbDispRepPolygonModel
350
5C582
  3
AecDbDispRepPolygonTrueColour
350
5C584
  3
AecDbDispRepRailingModel
350
5C65E
  3
AecDbDispRepRailingPlan
350
5C654
  3
AecDbDispRepRailingPlan100
350
5C65A
  3
AecDbDispRepRailingPlan50
350
5C65C
  3
AecDbDispRepRoofModel
350
5C656
  3
AecDbDispRepRoofPlan
350
5C5CF
  3
AecDbDispRepRoofPlan100
350
5C5DF
  3
AecDbDispRepRoofPlan50
350
5C5F2
  3
AecDbDispRepRoofRcp
350
5C658
  3
AecDbDispRepRoofSlabModel
350
5C668
  3
AecDbDispRepRoofSlabPlan
350
5C5CD
  3
AecDbDispRepRoofSlabPlan100
350
5C5D5
  3
AecDbDispRepRoofSlabPlan50
350
5C5FA
  3
AecDbDispRepScheduleTable
350
5C684
  3
AecDbDispRepSlabModel
350
5C672
  3
AecDbDispRepSlabPlan
350
5C5DB
  3
AecDbDispRepSlabPlan100
350
5C5D1
  3
AecDbDispRepSlabPlan50
350
5C5F4
  3
AecDbDispRepSlice
350
5C58A
  3
AecDbDispRepSpaceDecomposed
350
5C666
  3
AecDbDispRepSpaceModel
350
5C66C
  3
AecDbDispRepSpacePlan
350
5C5D3
  3
AecDbDispRepSpacePlan100
350
5C5D7
  3
AecDbDispRepSpacePlan50
350
5C5FE
  3
AecDbDispRepSpaceRcp
350
5C664
  3
AecDbDispRepSpaceVolume
350
5C66E
  3
AecDbDispRepStairModel
350
5C660
  3
AecDbDispRepStairPlan
350
5C662
  3
AecDbDispRepStairPlan100
350
5C66A
  3
AecDbDispRepStairPlan50
350
5C670
  3
AecDbDispRepStairPlanOverlapping
350
5C5A6
  3
AecDbDispRepStairRcp
350
5C5A4
  3
AecDbDispRepWallGraph
350
5C5AA
  3
AecDbDispRepWallModel
350
5C596
  3
AecDbDispRepWallPlan
350
5C5DD
  3
AecDbDispRepWallPlan100
350
5C5D9
  3
AecDbDispRepWallPlan50
350
5C5FC
  3
AecDbDispRepWallRcp
350
5C59A
  3
AecDbDispRepWallSchem
350
5C5AC
  3
AecDbDispRepWindowAssemblyModel
350
5C5AE
  3
AecDbDispRepWindowAssemblyPlan
350
5C5EC
  3
AecDbDispRepWindowAssemblyPlan100
350
5C5EE
  3
AecDbDispRepWindowAssemblyPlan50
350
5C602
  3
AecDbDispRepWindowAssemblySillPlan
350
5C5A8
  3
AecDbDispRepWindowElev
350
5C594
  3
AecDbDispRepWindowModel
350
5C5A2
  3
AecDbDispRepWindowNominal
350
5C5B2
  3
AecDbDispRepWindowPlan
350
5C59C
  3
AecDbDispRepWindowPlan100
350
5C59E
  3
AecDbDispRepWindowPlan50
350
5C598
  3
AecDbDispRepWindowRcp
350
5C5B0
  3
AecDbDispRepWindowSillPlan
350
5C5A0
  3
AecDbDispRepZone
350
5C5E3
  3
AecDbDispRepZonePlan100
350
5C5E1
  3
AecDbDispRepZonePlan50
350
5C600
  3
AecsDbDispRepMemberElevationDesign
350
5C67C
  3
AecsDbDispRepMemberElevationDetail
350
5C678
  3
AecsDbDispRepMemberLogical
350
5C676
  3
AecsDbDispRepMemberModelDesign
350
5C67A
  3
AecsDbDispRepMemberModelDetail
350
5C674
  3
AecsDbDispRepMemberPlanDesign
350
5C67E
  3
AecsDbDispRepMemberPlanDetail
350
5C680
  3
AecsDbDispRepMemberPlanSketch
350
5C682
  0
DICTIONARY
  5
5C562
102
{ACAD_REACTORS
330
C
102
}
330
C
100
AcDbDictionary
281
     1
  3
*A1
350
5C563
  3
*A10
350
5C5F9
  3
*A100
350
5C5A7
  3
*A101
350
5C679
  3
*A102
350
5C5EA
  3
*A103
350
5C665
  3
*A104
350
5C5DE
  3
*A105
350
5C67F
  3
*A106
350
5C57C
  3
*A107
350
5C5AD
  3
*A108
350
5C585
  3
*A109
350
5C683
  3
*A11
350
5C5CB
  3
*A110
350
5C685
  3
*A111
350
5C66D
  3
*A112
350
5C5BD
  3
*A113
350
5C5FD
  3
*A114
350
5C636
  3
*A115
350
5C675
  3
*A116
350
5C5ED
  3
*A117
350
5C646
  3
*A118
350
5C65B
  3
*A119
350
5C609
  3
*A12
350
5C5C5
  3
*A120
350
5C58B
  3
*A121
350
5C60D
  3
*A122
350
5C681
  3
*A123
350
5C605
  3
*A124
350
5C58F
  3
*A125
350
5C642
  3
*A126
350
5C5A9
  3
*A127
350
5C593
  3
*A128
350
5C6B7
  3
*A129
350
5C5D6
  3
*A13
350
5C61C
  3
*A130
350
5C65D
  3
*A131
350
5C587
  3
*A132
350
5C5E0
  3
*A133
350
5C5E8
  3
*A134
350
5C624
  3
*A135
350
5C5AF
  3
*A136
350
5C591
  3
*A137
350
5C620
  3
*A138
350
5C5B3
  3
*A139
350
5C667
  3
*A14
350
5C5C7
  3
*A140
350
5C56C
  3
*A141
350
5C638
  3
*A142
350
5C640
  3
*A15
350
5C5AB
  3
*A16
350
5C60B
  3
*A17
350
5C651
  3
*A18
350
5C56E
  3
*A19
350
5C5B5
  3
*A2
350
5C64C
  3
*A20
350
5C63E
  3
*A21
350
5C583
  3
*A22
350
5C599
  3
*A23
350
5C65F
  3
*A24
350
5C614
  3
*A25
350
5C5D2
  3
*A26
350
5C663
  3
*A27
350
5C5C1
  3
*A28
350
5C659
  3
*A29
350
5C5D8
  3
*A3
350
5C5F3
  3
*A30
350
5C57A
  3
*A31
350
5C5F5
  3
*A32
350
5C5DC
  3
*A33
350
5C5C9
  3
*A34
350
5C626
  3
*A35
350
5C671
  3
*A36
350
5C59B
  3
*A37
350
5C5CE
  3
*A38
350
5C632
  3
*A39
350
5C63A
  3
*A4
350
5C5B9
  3
*A40
350
5C67B
  3
*A41
350
5C5FB
  3
*A42
350
5C5DA
  3
*A43
350
5C677
  3
*A44
350
5C5FF
  3
*A45
350
5C5A5
  3
*A46
350
5C616
  3
*A47
350
5C603
  3
*A48
350
5C570
  3
*A49
350
5C578
  3
*A5
350
5C63C
  3
*A50
350
5C5F7
  3
*A51
350
5C661
  3
*A52
350
5C58D
  3
*A53
350
5C61A
  3
*A54
350
5C601
  3
*A55
350
5C589
  3
*A56
350
5C576
  3
*A57
350
5C5C3
  3
*A58
350
5C5E2
  3
*A59
350
5C59D
  3
*A6
350
5C5A3
  3
*A60
350
5C669
  3
*A61
350
5C622
  3
*A62
350
5C5A1
  3
*A63
350
5C60F
  3
*A64
350
5C595
  3
*A65
350
5C628
  3
*A66
350
5C644
  3
*A67
350
5C57F
  3
*A68
350
5C648
  3
*A69
350
5C62C
  3
*A7
350
5C62E
  3
*A70
350
5C618
  3
*A71
350
5C67D
  3
*A72
350
5C5B1
  3
*A73
350
5C5E4
  3
*A74
350
5C61E
  3
*A75
350
5C56A
  3
*A76
350
5C572
  3
*A77
350
5C607
  3
*A78
350
5C5BB
  3
*A79
350
5C64E
  3
*A8
350
5C5BF
  3
*A80
350
5C62A
  3
*A81
350
5C5B7
  3
*A82
350
5C653
  3
*A83
350
5C5F1
  3
*A84
350
5C66B
  3
*A85
350
5C657
  3
*A86
350
5C630
  3
*A87
350
5C567
  3
*A88
350
5C574
  3
*A89
350
5C64A
  3
*A9
350
5C597
  3
*A90
350
5C59F
  3
*A91
350
5C5D4
  3
*A92
350
5C66F
  3
*A93
350
5C655
  3
*A94
350
5C5D0
  3
*A95
350
5C673
  3
*A96
350
5C612
  3
*A97
350
5C634
  3
*A98
350
5C5E6
  3
*A99
350
5C5EF
  0
DICTIONARY
  5
5C693
102
{ACAD_REACTORS
330
C
102
}
330
C
100
AcDbDictionary
281
     1
  3
AIA (256 Color)
350
5C6B8
  0
DICTIONARY
  5
F7
102
{ACAD_REACTORS
330
C
102
}
330
C
100
AcDbDictionary
281
     1
  0
DICTIONARY
  5
5C565
102
{ACAD_REACTORS
330
C
102
}
330
C
100
AcDbDictionary
281
     1
  3
AEC_VARS_ARCHBASE
350
5C6BB
  3
AEC_VARS_DWG_SETUP
350
5C566
  3
AEC_VARS_STRUCTUREBASE
350
5C6BC
  3
AECMX_VARS_MUNICH
350
5C6BD
  0
DICTIONARY
  5
1DD06
102
{ACAD_REACTORS
330
E7
102
}
330
E7
100
AcDbDictionary
281
     1
  0
DICTIONARY
  5
E8
102
{ACAD_REACTORS
330
E7
102
}
330
E7
100
AcDbDictionary
281
     1
  0
DICTIONARY
  5
1DD05
102
{ACAD_REACTORS
330
E7
102
}
330
E7
100
AcDbDictionary
281
     1
1001
ACAD
1000
<All
  0
XRECORD
  5
A6D
102
{ACAD_REACTORS
330
A6C
102
}
330
A6C
100
AcDbXrecord
280
     1
290
     1
  0
SORTENTSTABLE
  5
A63
102
{ACAD_REACTORS
330
A62
102
}
330
A62
100
AcDbSortentsTable
330
1F
331
AE565
  5
AE56C
331
AE55D
  5
AE568
331
AE559
  5
AE564
331
AE3E2
  5
ADFC7
331
AE610
  5
AE6A5
331
AE6DD
  5
AE6E1
331
AE6D9
  5
AE6DD
331
AE6D5
  5
AE6D9
331
AE6D1
  5
AE6D5
331
ADE34
  5
ADFC1
331
ADCF9
  5
ADD88
331
ADE30
  5
AE4C1
331
ABD26
  5
ADD01
331
ADE2C
  5
AE49A
331
ADE28
  5
AE3EA
331
AE555
  5
AE55C
331
ADFF7
  5
AE368
331
ADFF3
  5
ADFFD
331
AE3DA
  5
AE4C3
331
ADFEB
  5
ADFF4
331
AE501
  5
ADD8B
331
AE588
  5
AE621
331
AE6CD
  5
AE6D1
331
AE718
  5
A5E51
331
AE6C9
  5
AE6CD
331
AE704
  5
AE717
331
AE6C5
  5
AE6C9
331
AE700
  5
AE704
331
AE6C1
  5
AE6C5
331
A2287
  5
ABD40
331
ADE24
  5
AE3DF
331
ABD16
  5
ABE81
331
ADE1C
  5
AE3D2
331
ABE81
  5
ADD7C
331
ADE18
  5
AE3CE
331
AE584
  5
AE5D2
331
AE4C9
  5
AE556
331
AE580
  5
AE587
331
ADFDF
  5
ADFEB
331
AE4C5
  5
AE4CE
331
AE57C
  5
AE583
331
AE4C1
  5
AE4CA
331
AE578
  5
AE57F
331
AE6FC
  5
AE700
331
AE6BD
  5
AE6C1
331
AE6F8
  5
AE6FC
331
AE6B9
  5
AE6BD
331
AE6F4
  5
AE6F8
331
AE6B5
  5
AE6B9
331
AE6F0
  5
AE6F4
331
AE6B1
  5
AE6B5
331
A06C6
  5
ABD31
331
A06C2
  5
ABD25
331
A06BE
  5
A5E66
331
A06BA
  5
A5E5D
331
ADE10
  5
ADFC0
331
ADD6C
  5
ADD8F
331
AE4BD
  5
AE4C6
331
AE574
  5
AE57B
331
AE570
  5
AE577
331
ADFC7
  5
ADFE7
331
AE56C
  5
AE573
331
AE568
  5
AE56F
331
AE6EC
  5
AE6F3
331
AE6AD
  5
AE6B1
331
AE6E8
  5
AE6EC
331
AE6A9
  5
AE6AD
331
AE6E4
  5
AE6E8
331
AE6A5
  5
AE6A9
331
AE6E0
  5
AE6E4
331
ADFBF
  5
ADFDC
331
AE564
  5
AE56B
331
AE55C
  5
AE567
331
AE613
  5
AE6A7
331
AE558
  5
AE563
331
AE6DC
  5
AE6E0
331
AE6D8
  5
AE6DC
331
AE6D4
  5
AE6D8
331
AE6D0
  5
AE6D4
331
ADE2F
  5
AE4C0
331
ADCF8
  5
ADD87
331
ADE2B
  5
AE496
331
ABD25
  5
ADD00
331
AE60F
  5
AE624
331
AE554
  5
AE55B
331
ADFF6
  5
AE35F
331
ADFF2
  5
ADFFB
331
ADFEE
  5
ADFF7
331
ADFEA
  5
ADFF3
331
AE6CC
  5
AE6D0
331
AE6C8
  5
AE6CC
331
AE6C4
  5
AE6C8
331
AE703
  5
AE713
331
AE6C0
  5
AE6C4
331
ADE27
  5
AE3E4
331
ADE23
  5
AE3DC
331
ABD19
  5
AC6FF
331
ADE1B
  5
AE3D1
331
ABD15
  5
ABD6A
331
ABE80
  5
ADD7B
331
AE587
  5
AE620
331
AE4CC
  5
AE559
331
AE29D
  5
AE3CB
331
ADFE6
  5
ADFF1
331
AE583
  5
AE5D1
331
AE4C8
  5
AE554
331
ADFE2
  5
ADFED
331
AE57F
  5
AE586
331
AE4C4
  5
AE4CD
331
AE57B
  5
AE582
331
AE4C0
  5
AE4C9
331
AE6FF
  5
AE703
331
AE6BC
  5
AE6C0
331
AE6FB
  5
AE6FF
331
AE6B8
  5
AE6BC
331
AE6F7
  5
AE6FB
331
AE6B4
  5
AE6B8
331
AE6F3
  5
AE6F7
331
AE6B0
  5
AE6B4
331
A06C5
  5
ABD30
331
A06C1
  5
ABD24
331
A06BD
  5
A5E65
331
ADE17
  5
AE3CD
331
A06B9
  5
A5E5F
331
ADD6B
  5
ADD8E
331
ABD3C
  5
ADD4C
331
AE577
  5
AE57E
331
AE4BC
  5
AE4C5
331
AE573
  5
AE57A
331
AE56F
  5
AE576
331
ADFC6
  5
ADFE5
331
AE56B
  5
AE572
331
ADFC2
  5
ADFE3
331
AE498
  5
AE4C4
331
AE6EB
  5
AE6F2
331
AE6AC
  5
AE6B0
331
AE6A8
  5
AE6AC
331
AE6E7
  5
AE6EB
331
AE6E3
  5
AE6E7
331
AE6A4
  5
AE6A8
331
ADD63
  5
ADD8C
331
ABD30
  5
ADD0E
331
AE567
  5
AE56E
331
AE563
  5
AE56A
331
AE55B
  5
AE566
331
AE612
  5
AE6A4
331
AE6DF
  5
AE6E3
331
AE6DB
  5
AE6DF
331
AE6D7
  5
AE6DB
331
AE6D3
  5
AE6D7
331
ADE36
  5
ADFC5
331
ADE2E
  5
AE4BF
331
ADCF7
  5
ADD86
331
ADE2A
  5
AE495
331
ABD24
  5
AC705
331
AE557
  5
AE562
331
AE553
  5
AE55A
331
ADFF5
  5
AE29D
331
ADFF1
  5
ADFF9
331
ADFED
  5
ADFF6
331
ADFE9
  5
ADFF2
331
AE6CF
  5
AE6D3
331
AE6CB
  5
AE6CF
331
AE6C7
  5
AE6CB
331
AE702
  5
AE712
331
AE6C3
  5
AE6C7
331
ADE26
  5
AE3E2
331
A06C8
  5
ABD33
331
ADE22
  5
AE3DB
331
ABD1C
  5
AC701
331
ADE1E
  5
AE3D4
331
ABD18
  5
AC6FE
331
ADE1A
  5
AE3D0
331
ABD14
  5
ABD42
331
AE586
  5
AE613
331
AE4CB
  5
AE558
331
AE29C
  5
AE3CA
331
ADFE5
  5
ADFF0
331
AE582
  5
AE5D0
331
AE4C7
  5
AE553
331
AE57E
  5
AE585
331
ADFDD
  5
ADFEA
331
AE4C3
  5
AE4CC
331
AE57A
  5
AE581
331
AE6FE
  5
AE702
331
AE6BF
  5
AE6C3
331
AE6FA
  5
AE6FE
331
AE6BB
  5
AE6BF
331
AE6F6
  5
AE6FA
331
AE6B7
  5
AE6BB
331
AE6F2
  5
AE6F6
331
AE6B3
  5
AE6B7
331
A06C4
  5
ABD2F
331
A06C0
  5
ABD21
331
A06BC
  5
A5E63
331
ADE16
  5
AE3CC
331
ABE7F
  5
ADD62
331
A06B8
  5
A5E5C
331
ABD3B
  5
ADD4B
331
AE4BF
  5
AE4C8
331
AE576
  5
AE57D
331
AE572
  5
AE579
331
AE56E
  5
AE575
331
ADFC5
  5
ADFE4
331
AE56A
  5
AE571
331
ADFC1
  5
ADFE0
331
AE6AF
  5
AE6B3
331
AE6EA
  5
AE6F1
331
AE6AB
  5
AE6AF
331
AE6E6
  5
AE6EA
331
AE6A7
  5
AE6AB
331
AE6E2
  5
AE6E6
331
ADFBD
  5
ADFC6
331
ADD5E
  5
ADD8A
331
AE566
  5
AE56D
331
AE562
  5
AE569
331
AE0D0
  5
A5E62
331
AE55A
  5
AE565
331
AE611
  5
AE6A6
331
ADFF8
  5
AE3C7
331
AE6DE
  5
AE6E2
331
AE6DA
  5
AE6DE
331
AE6D6
  5
AE6DA
331
AE721
  5
A5E58
331
AE6D2
  5
AE6D6
331
ADE35
  5
ADFC2
331
ABD2F
  5
ADD02
331
ADCFA
  5
ADD89
331
ADE2D
  5
AE4BE
331
ADCF6
  5
ADD85
331
ADE29
  5
AE3F0
331
AE556
  5
AE55D
331
AE3DF
  5
ADFDF
331
ADFF4
  5
AE29C
331
ADFF0
  5
ADFF8
331
ADFEC
  5
ADFF5
331
AE502
  5
ADD8D
331
AE6CE
  5
AE6D2
331
AE6CA
  5
AE6CE
331
AE705
  5
AE718
331
AE6C6
  5
AE6CA
331
AE701
  5
AE705
331
AE6C2
  5
AE6C6
331
ADE25
  5
AE3E1
331
ABD1B
  5
AC700
331
ADE1D
  5
AE3D3
331
ABD17
  5
AC6FD
331
ADE19
  5
AE3CF
331
ABD13
  5
ABD41
331
AE585
  5
AE612
331
AE4CA
  5
AE557
331
ADFE4
  5
ADFEE
331
AE581
  5
AE588
331
AE4C6
  5
AE509
331
ADFE0
  5
ADFEC
331
AE57D
  5
AE584
331
AE4C2
  5
AE4CB
331
AE579
  5
AE580
331
AE6FD
  5
AE701
331
AE6BE
  5
AE6C2
331
AE6F9
  5
AE6FD
331
AE6BA
  5
AE6BE
331
AE6F5
  5
AE6F9
331
AE6B6
  5
AE6BA
331
AE6F1
  5
AE6F5
331
AE6B2
  5
AE6B6
331
A06C7
  5
ABD32
331
A06C3
  5
ABD26
331
A06BF
  5
A5E67
331
A06BB
  5
A5E60
331
ABD3A
  5
ADD35
331
AE575
  5
AE57C
331
AE4BE
  5
AE4C7
331
AE571
  5
AE578
331
AE56D
  5
AE574
331
ADFC8
  5
ADFE9
331
AE569
  5
AE570
331
ADFC0
  5
ADFDE
331
AE6AE
  5
AE6B2
331
AE6E9
  5
AE6F0
331
AE6AA
  5
AE6AE
331
AE6E5
  5
AE6E9
331
AE6A6
  5
AE6AA
331
AE6E1
  5
AE6E5
  0
XRECORD
  5
A21B0
102
{ACAD_REACTORS
330
A21AF
102
}
330
A21AF
100
AcDbXrecord
280
     1
 90
        1
340
1DCB0
  0
XRECORD
  5
A21B4
102
{ACAD_REACTORS
330
A21B3
102
}
330
A21B3
100
AcDbXrecord
280
     1
 90
        1
340
A12
  0
XRECORD
  5
AE7F5
102
{ACAD_REACTORS
330
A09BD
102
}
330
A09BD
100
AcDbXrecord
280
     1
 40
283836.0
  1
\pxql;{\fArial|b0|i0|c0|p34;PROFESSIONAL LANDSCAPE DRIPLINE - CONNECTION WITH DRIPLINE AND TEE}
  0
XRECORD
  5
A21C8
102
{ACAD_REACTORS
330
A21C7
102
}
330
A21C7
100
AcDbXrecord
280
     1
 90
        1
340
1DCB0
  0
XRECORD
  5
A21CC
102
{ACAD_REACTORS
330
A21CB
102
}
330
A21CB
100
AcDbXrecord
280
     1
 90
        1
340
A12
  0
ACDBDETAILVIEWSTYLE
  5
5C440
102
{ACAD_XDICTIONARY
360
A21DF
102
}
102
{ACAD_REACTORS
330
5C43F
102
}
330
5C43F
100
AcDbModelDocViewStyle
 70
     0
  3
Imperial24
290
     0
100
AcDbDetailViewStyle
 70
     0
 71
     0
 90
        3
 71
     1
340
11
 62
   256
 40
0.24
340
0
 62
   256
 40
0.24
300

 40
0.36
280
     3
 71
     2
340
16
 90
       25
 62
   256
 71
     3
340
11
 62
   256
 40
0.24
 90
        1
 40
0.75
 90
        1
300
%<\AcVar ViewType \f "%tc1">% %<\AcVar ViewDetailId>%\PSCALE %<\AcVar ViewScale \f "%sn">%
 71
     4
340
16
 90
       25
 62
   256
340
16
 90
       25
 62
   256
280
     0
  0
GROUP
  5
AE589
102
{ACAD_REACTORS
330
D
102
}
330
D
100
AcDbGroup
300

 70
     1
 71
     1
340
AE588
340
AE587
340
AE586
340
AE585
340
AE584
340
AE583
340
AE582
340
AE581
340
AE580
340
AE57F
340
AE57E
340
AE57D
340
AE57C
340
AE57B
340
AE57A
340
AE579
340
AE578
340
AE577
340
AE576
340
AE575
340
AE574
340
AE573
340
AE572
340
AE571
340
AE570
340
AE56F
340
AE56E
340
AE56D
340
AE56C
340
AE56B
340
AE56A
340
AE569
340
AE568
340
AE567
340
AE566
340
AE565
340
AE564
340
AE563
340
AE562
340
AE55D
340
AE55C
340
AE55B
340
AE55A
340
AE559
340
AE558
340
AE557
340
AE556
340
AE555
340
AE554
340
AE553
  0
GROUP
  5
AE6ED
102
{ACAD_REACTORS
330
D
102
}
330
D
100
AcDbGroup
300

 70
     1
 71
     1
340
AE6EC
340
AE6EB
340
AE6EA
340
AE6E9
340
AE6E8
340
AE6E7
340
AE6E6
340
AE6E5
340
AE6E4
340
AE6E3
340
AE6E2
340
AE6E1
340
AE6E0
340
AE6DF
340
AE6DE
340
AE6DD
340
AE6DC
340
AE6DB
340
AE6DA
340
AE6D9
340
AE6D8
340
AE6D7
340
AE6D6
340
AE6D5
340
AE6D4
340
AE6D3
340
AE6D2
340
AE6D1
340
AE6D0
340
AE6CF
340
AE6CE
340
AE6CD
340
AE6CC
340
AE6CB
340
AE6CA
340
AE6C9
340
AE6C8
340
AE6C7
340
AE6C6
340
AE6C5
340
AE6C4
340
AE6C3
340
AE6C2
340
AE6C1
340
AE6C0
340
AE6BF
340
AE6BE
340
AE6BD
340
AE6BC
340
AE6BB
340
AE6BA
340
AE6B9
340
AE6B8
340
AE6B7
340
AE6B6
340
AE6B5
340
AE6B4
340
AE6B3
340
AE6B2
340
AE6B1
340
AE6B0
340
AE6AF
340
AE6AE
340
AE6AD
340
AE6AC
340
AE6AB
340
AE6AA
340
AE6A9
340
AE6A8
340
AE6A7
340
AE6A6
340
AE6A5
340
AE6A4
  0
LAYOUT
  5
A21A1
102
{ACAD_REACTORS
330
1A
102
}
330
1A
100
AcDbPlotSettings
  1

  2
DWG To PDF.pc3
  4
ANSI_A_(8.50_x_11.00_Inches)
  6

 40
5.793749809265136
 41
17.79375076293945
 42
5.793746948242187
 43
17.79376220703125
 44
215.8999938964844
 45
279.3999938964844
 46
0.0
 47
0.0
 48
0.0
 49
0.0
140
0.0
141
0.0
142
1.0
143
1.0
 70
   688
 72
     0
 73
     1
 74
     5
  7
Standard Pen Settings.ctb
 75
    16
147
1.0
 76
     0
 77
     2
 78
   300
148
0.0
149
0.0
100
AcDbLayout
  1
8.5 X 11
 70
     1
 71
     1
 10
-0.7005418191744587
 20
-0.2281003861915408
 11
10.29945794052965
 21
8.271899373512569
 12
0.0
 22
0.0
 32
0.0
 14
0.0460402222469014
 24
0.0401186204693573
 34
-0.0000000349181948
 15
9.568821384571574
 25
7.999140916809832
 35
0.0000000814935746
146
0.0
 13
0.0
 23
0.0
 33
0.0
 16
1.0
 26
0.0
 36
0.0
 17
0.0
 27
1.0
 37
0.0
 76
     0
330
A21A0
331
A21AE
1001
ACAD_PSEXT
1000
DWG To PDF.pc3
1000
DWG To PDF
1000
File
1000

1070
     0
  0
LAYOUT
  5
A21B9
102
{ACAD_REACTORS
330
1A
102
}
330
1A
100
AcDbPlotSettings
  1

  2
DWG To PDF.pc3
  4
ISO_A4_(210.00_x_297.00_MM)
  6

 40
5.793749809265136
 41
17.79375076293945
 42
5.793746948242187
 43
17.79376220703125
 44
210.0
 45
297.0
 46
0.0
 47
0.0
 48
0.0
 49
0.0
140
0.0
141
0.0
142
1.0
143
0.0393700787401575
 70
   672
 72
     1
 73
     1
 74
     5
  7
Standard Pen Settings.ctb
 75
    16
147
25.4
 76
     0
 77
     2
 78
   300
148
0.0
149
0.0
100
AcDbLayout
  1
A4
 70
     1
 71
     2
 10
-0.7005418191744587
 20
-0.2281003861915408
 11
10.99237156665231
 21
8.039616149241531
 12
0.0
 22
0.0
 32
0.0
 14
0.0145643619954186
 24
0.0132348038147043
 34
-0.0000000349181948
 15
10.27458914444549
 25
7.796388667592996
 35
0.0000000814935746
146
0.0
 13
0.0
 23
0.0
 33
0.0
 16
1.0
 26
0.0
 36
0.0
 17
0.0
 27
1.0
 37
0.0
 76
     0
330
A21B8
331
A21C6
1001
ACAD_PSEXT
1000
DWG To PDF.pc3
1000
DWG To PDF
1000
File
1000

1070
     0
  0
LAYOUT
  5
22
102
{ACAD_XDICTIONARY
360
66EB6
102
}
102
{ACAD_REACTORS
330
1A
102
}
330
1A
100
AcDbPlotSettings
  1

  2
DWG To PDF.pc3
  4
ANSI_full_bleed_A_(8.50_x_11.00_Inches)
  6

 40
0.7937499880790711
 41
0.7937499880790711
 42
0.7937469482421875
 43
0.79376220703125
 44
215.8999938964844
 45
279.3999938964844
 46
30.37052290086102
 47
0.0
 48
-146.9342066687381
 49
-1.639012634498612
140
-81.17209046769231
141
34.71350671378767
142
1.0
143
6.012536734408003
 70
 11956
 72
     0
 73
     1
 74
     4
  7
Standard Pen Settings.ctb
 75
     0
147
0.1663191501645703
 76
     0
 77
     2
 78
   300
148
3732.128849385947
149
41.63092091626476
100
AcDbLayout
  1
Model
 70
     1
 71
     0
 10
0.0
 20
0.0
 11
12.0
 21
9.0
 12
0.0
 22
0.0
 32
0.0
 14
0.0
 24
0.0
 34
0.0
 15
0.0
 25
0.0
 35
0.0
146
0.0
 13
0.0
 23
0.0
 33
0.0
 16
1.0
 26
0.0
 36
0.0
 17
0.0
 27
1.0
 37
0.0
 76
     0
330
1F
331
DAB
1001
ACAD_PSEXT
1000
DWG To PDF.pc3
1000
DWG To PDF
1000
File
1000

1070
     0
  0
MATERIAL
  5
97
102
{ACAD_REACTORS
330
72
102
}
330
72
100
AcDbMaterial
  1
ByBlock
 73
     1
 78
     1
172
     1
176
     1
270
     1
274
     1
 94
       63
  0
MATERIAL
  5
96
102
{ACAD_REACTORS
330
72
102
}
330
72
100
AcDbMaterial
  1
ByLayer
 73
     1
 78
     1
172
     1
176
     1
270
     1
274
     1
 94
       63
  0
MATERIAL
  5
98
102
{ACAD_REACTORS
330
72
102
}
330
72
100
AcDbMaterial
  1
Global
 73
     1
 78
     1
172
     1
176
     1
270
     1
274
     1
 94
       63
  0
MLEADERSTYLE
  5
A34
102
{ACAD_REACTORS
330
A33
102
}
330
A33
100
AcDbMLeaderStyle
179
     2
170
     2
171
     1
172
     0
 90
        2
 40
0.0
 41
0.0
173
     1
 91
-1056964608
340
14
 92
       -2
290
     1
 42
0.09
291
     1
 43
0.36
  3
Standard
 44
0.18
300

342
11
174
     1
178
     6
175
     1
176
     0
 93
-1056964608
 45
0.18
292
     0
297
     0
 46
0.18
 94
-1056964608
 47
1.0
 49
1.0
140
1.0
293
     1
141
0.0
294
     1
177
     0
142
1.0
295
     0
296
     0
143
0.125
271
     0
272
     9
273
     9
298
     0
  0
MLINESTYLE
  5
18
102
{ACAD_REACTORS
330
17
102
}
330
17
100
AcDbMlineStyle
  2
STANDARD
 70
     0
  3

 62
   256
 51
90.0
 52
90.0
 71
     2
 49
0.5
 62
   256
  6
BYLAYER
 49
-0.5
 62
   256
  6
BYLAYER
  0
PLOTSETTINGS
  5
E0
102
{ACAD_REACTORS
330
19
102
}
330
19
100
AcDbPlotSettings
  1
500 - 24x36
  2
HP DesignJet 500 42 by HP.pc3
  4
User1659
  6

 40
0.0
 41
0.0
 42
0.0
 43
0.0
 44
914.4000244140626
 45
609.6000366210937
 46
0.0000122070312948
 47
0.000018310546897
 48
0.0
 49
0.0
140
36.0
141
24.0
142
1.0
143
1.0
 70
  2740
 72
     0
 73
     0
 74
     4
  7
DVD 2005.ctb
 75
    16
147
1.0
 76
     0
 77
     2
 78
   300
148
0.0
149
0.0
1001
ACAD_PSEXT
1000
HP DesignJet 500 42 by HP.pc3
1000
HP DesignJet 500 42 by HP
1000
\\bobxp2
1000

1070
     0
  0
PLOTSETTINGS
  5
DE
102
{ACAD_REACTORS
330
19
102
}
330
19
100
AcDbPlotSettings
  1
500 - 30x42 Landscape
  2
HP DesignJet 500 42 by HP.pc3
  4
User637
  6

 40
0.0
 41
0.0
 42
0.0
 43
0.0
 44
762.0
 45
1066.800048828125
 46
-0.0000000000000902
 47
0.0000244140624993
 48
-44.0
 49
0.0000000000000071
140
-2.0
141
30.00000000000002
142
1.0
143
1.0
 70
  2804
 72
     0
 73
     1
 74
     4
  7
DVD 2005.ctb
 75
    16
147
1.0
 76
     0
 77
     2
 78
   300
148
1117.6
149
-0.0000000000001805
1001
ACAD_PSEXT
1000
HP DesignJet 500 42 by HP.pc3
1000
HP DesignJet 500 42 by HP
1000
\\bobxp2
1000

1070
     0
  0
PLOTSETTINGS
  5
DF
102
{ACAD_REACTORS
330
19
102
}
330
19
100
AcDbPlotSettings
  1
500 - 30x42 Portrait
  2
HP DesignJet 500 42 by HP.pc3
  4
User637
  6

 40
0.0
 41
0.0
 42
0.0
 43
0.0
 44
762.0
 45
1066.800048828125
 46
-0.0000000000000902
 47
0.0000244140626798
 48
-38.0
 49
34.00000000000002
140
-7.999999999999992
141
76.0
142
1.0
143
1.0
 70
  2804
 72
     0
 73
     0
 74
     4
  7
DVD 2005.ctb
 75
    16
147
1.0
 76
     0
 77
     2
 78
   300
148
965.1999999999999
149
-863.6000000000004
1001
ACAD_PSEXT
1000
HP DesignJet 500 42 by HP.pc3
1000
HP DesignJet 500 42 by HP
1000
\\bobxp2
1000

1070
     0
  0
PLOTSETTINGS
  5
1052
102
{ACAD_REACTORS
330
19
102
}
330
19
100
AcDbPlotSettings
  1
6200 8.5x11
  2
HP Officejet 6200 series (Copy 1)
  4
Letter
  6

 40
3.96875
 41
3.799404859542846
 42
3.968734741210937
 43
3.17498779296875
 44
215.8999938964844
 45
279.3999938964844
 46
0.0
 47
0.0
 48
0.0
 49
0.0
140
0.0
141
0.0
142
1.0
143
1.0
 70
 15024
 72
     0
 73
     1
 74
     5
  7
DVD 2005.ctb
 75
    16
147
1.0
 76
     0
 77
     2
 78
   300
148
0.0
149
0.0
1001
ACAD_PSEXT
1000
HP Officejet 6200 series (Copy 1)
1000
HP Officejet 6200 series
1000
USB002
1000

1070
     0
  0
PLOTSETTINGS
  5
E1
102
{ACAD_REACTORS
330
19
102
}
330
19
100
AcDbPlotSettings
  1
9800 - 11x17 Reduced
  2
HP Deskjet 9800 Series.pc3
  4
Tabloid
  6

 40
4.011083126068115
 41
15.65274238586425
 42
4.011077880859375
 43
3.17498779296875
 44
279.3999938964844
 45
431.7999877929687
 46
0.0
 47
2.952754139900229
 48
0.0
 49
0.0
140
36.0
141
24.0
142
1.0
143
2.246314643717012
 70
  2740
 72
     0
 73
     1
 74
     4
  7
DVD 2005.ctb
 75
     0
147
0.4451736103831314
 76
     0
 77
     2
 78
   300
148
0.0
149
0.0
1001
ACAD_PSEXT
1000
HP Deskjet 9800 Series.pc3
1000
HP Deskjet 9800 Series
1000
\\Server
1000

1070
     0
  0
PLOTSETTINGS
  5
E2
102
{ACAD_REACTORS
330
19
102
}
330
19
100
AcDbPlotSettings
  1
K550 - 8x11 Reduced
  2
HP Officejet Pro K550 Series.pc3
  4
Letter
  6

 40
4.095749855041503
 41
12.73173427581787
 42
4.095748901367187
 43
4.09576416015625
 44
215.8999938964844
 45
279.3999938964844
 46
16.3300824165344
 47
0.0
 48
0.0
 49
0.0
140
36.0
141
24.0
142
1.0
143
3.482466807486017
 70
  2804
 72
     0
 73
     1
 74
     4
  7
DVD 2005.ctb
 75
     0
147
0.2871527728133314
 76
     0
 77
     2
 78
   300
148
0.0
149
0.0
1001
ACAD_PSEXT
1000
HP Officejet Pro K550 Series.pc3
1000
HP Officejet Pro K550 Series
1000
Next to Jodi
1000

1070
     0
  0
ACDBPLACEHOLDER
  5
F
102
{ACAD_REACTORS
330
E
102
}
330
E
  0
DICTIONARY
  5
A15E6
330
A15E5
100
AcDbDictionary
280
     1
281
     1
  3
ADSK_XREC_MENTALRAYSETTINGSINFO
360
A15E7
  0
SCALE
  5
4D48B
102
{ACAD_REACTORS
330
A11
102
}
330
A11
100
AcDbScale
 70
     0
300
1" = 40'
140
1.0
141
40.0
290
     0
  0
SCALE
  5
4D48C
102
{ACAD_REACTORS
330
A11
102
}
330
A11
100
AcDbScale
 70
     0
300
1" = 1'
140
1.0
141
1.0
290
     0
  0
SCALE
  5
5C55A
102
{ACAD_REACTORS
330
A11
102
}
330
A11
100
AcDbScale
 70
     0
300
1" =10'_XREF
140
1.0
141
10.0
290
     0
  0
SCALE
  5
5C55B
102
{ACAD_REACTORS
330
A11
102
}
330
A11
100
AcDbScale
 70
     0
300
2" = 1'-0"_XREF
140
2.0
141
12.0
290
     0
  0
SCALE
  5
A12
102
{ACAD_REACTORS
330
A11
102
}
330
A11
100
AcDbScale
 70
     0
300
1:1
140
1.0
141
1.0
290
     0
  0
SCALE
  5
1DC91
102
{ACAD_REACTORS
330
A11
102
}
330
A11
100
AcDbScale
 70
     0
300
1:2
140
1.0
141
2.0
290
     0
  0
SCALE
  5
1DC92
102
{ACAD_REACTORS
330
A11
102
}
330
A11
100
AcDbScale
 70
     0
300
1:4
140
1.0
141
4.0
290
     0
  0
SCALE
  5
1DC93
102
{ACAD_REACTORS
330
A11
102
}
330
A11
100
AcDbScale
 70
     0
300
1:5
140
1.0
141
5.0
290
     0
  0
SCALE
  5
1DC94
102
{ACAD_REACTORS
330
A11
102
}
330
A11
100
AcDbScale
 70
     0
300
1:8
140
1.0
141
8.0
290
     0
  0
SCALE
  5
1DC95
102
{ACAD_REACTORS
330
A11
102
}
330
A11
100
AcDbScale
 70
     0
300
1:10
140
1.0
141
10.0
290
     0
  0
SCALE
  5
1DC96
102
{ACAD_REACTORS
330
A11
102
}
330
A11
100
AcDbScale
 70
     0
300
1:16
140
1.0
141
16.0
290
     0
  0
SCALE
  5
1DC97
102
{ACAD_REACTORS
330
A11
102
}
330
A11
100
AcDbScale
 70
     0
300
1:20
140
1.0
141
20.0
290
     0
  0
SCALE
  5
1DC98
102
{ACAD_REACTORS
330
A11
102
}
330
A11
100
AcDbScale
 70
     0
300
1:30
140
1.0
141
30.0
290
     0
  0
SCALE
  5
1DC99
102
{ACAD_REACTORS
330
A11
102
}
330
A11
100
AcDbScale
 70
     0
300
1:40
140
1.0
141
40.0
290
     0
  0
SCALE
  5
1DC9A
102
{ACAD_REACTORS
330
A11
102
}
330
A11
100
AcDbScale
 70
     0
300
1:50
140
1.0
141
50.0
290
     0
  0
SCALE
  5
1DC9B
102
{ACAD_REACTORS
330
A11
102
}
330
A11
100
AcDbScale
 70
     0
300
1:100
140
1.0
141
100.0
290
     0
  0
SCALE
  5
1DC9C
102
{ACAD_REACTORS
330
A11
102
}
330
A11
100
AcDbScale
 70
     0
300
2:1
140
2.0
141
1.0
290
     0
  0
SCALE
  5
1DC9D
102
{ACAD_REACTORS
330
A11
102
}
330
A11
100
AcDbScale
 70
     0
300
4:1
140
4.0
141
1.0
290
     0
  0
SCALE
  5
1DC9E
102
{ACAD_REACTORS
330
A11
102
}
330
A11
100
AcDbScale
 70
     0
300
8:1
140
8.0
141
1.0
290
     0
  0
SCALE
  5
1DC9F
102
{ACAD_REACTORS
330
A11
102
}
330
A11
100
AcDbScale
 70
     0
300
10:1
140
10.0
141
1.0
290
     0
  0
SCALE
  5
1DCA0
102
{ACAD_REACTORS
330
A11
102
}
330
A11
100
AcDbScale
 70
     0
300
100:1
140
100.0
141
1.0
290
     0
  0
SCALE
  5
1DCA1
102
{ACAD_REACTORS
330
A11
102
}
330
A11
100
AcDbScale
 70
     0
300
1/128" = 1'-0"
140
0.0078125
141
12.0
290
     0
  0
SCALE
  5
1DCA2
102
{ACAD_REACTORS
330
A11
102
}
330
A11
100
AcDbScale
 70
     0
300
1/64" = 1'-0"
140
0.015625
141
12.0
290
     0
  0
SCALE
  5
1DCA3
102
{ACAD_REACTORS
330
A11
102
}
330
A11
100
AcDbScale
 70
     0
300
1/32" = 1'-0"
140
0.03125
141
12.0
290
     0
  0
SCALE
  5
1DCA4
102
{ACAD_REACTORS
330
A11
102
}
330
A11
100
AcDbScale
 70
     0
300
1/16" = 1'-0"
140
0.0625
141
12.0
290
     0
  0
SCALE
  5
1DCA5
102
{ACAD_REACTORS
330
A11
102
}
330
A11
100
AcDbScale
 70
     0
300
3/32" = 1'-0"
140
0.09375
141
12.0
290
     0
  0
SCALE
  5
1DCA6
102
{ACAD_REACTORS
330
A11
102
}
330
A11
100
AcDbScale
 70
     0
300
1/8" = 1'-0"
140
0.125
141
12.0
290
     0
  0
SCALE
  5
1DCA7
102
{ACAD_REACTORS
330
A11
102
}
330
A11
100
AcDbScale
 70
     0
300
3/16" = 1'-0"
140
0.1875
141
12.0
290
     0
  0
SCALE
  5
1DCA8
102
{ACAD_REACTORS
330
A11
102
}
330
A11
100
AcDbScale
 70
     0
300
1/4" = 1'-0"
140
0.25
141
12.0
290
     0
  0
SCALE
  5
1DCA9
102
{ACAD_REACTORS
330
A11
102
}
330
A11
100
AcDbScale
 70
     0
300
3/8" = 1'-0"
140
0.375
141
12.0
290
     0
  0
SCALE
  5
1DCAA
102
{ACAD_REACTORS
330
A11
102
}
330
A11
100
AcDbScale
 70
     0
300
1/2" = 1'-0"
140
0.5
141
12.0
290
     0
  0
SCALE
  5
1DCAB
102
{ACAD_REACTORS
330
A11
102
}
330
A11
100
AcDbScale
 70
     0
300
3/4" = 1'-0"
140
0.75
141
12.0
290
     0
  0
SCALE
  5
1DCAC
102
{ACAD_REACTORS
330
A11
102
}
330
A11
100
AcDbScale
 70
     0
300
1" = 1'-0"
140
1.0
141
12.0
290
     0
  0
SCALE
  5
1DCAD
102
{ACAD_REACTORS
330
A11
102
}
330
A11
100
AcDbScale
 70
     0
300
1-1/2" = 1'-0"
140
1.5
141
12.0
290
     0
  0
SCALE
  5
1DCAE
102
{ACAD_REACTORS
330
A11
102
}
330
A11
100
AcDbScale
 70
     0
300
3" = 1'-0"
140
3.0
141
12.0
290
     0
  0
SCALE
  5
1DCAF
102
{ACAD_REACTORS
330
A11
102
}
330
A11
100
AcDbScale
 70
     0
300
6" = 1'-0"
140
6.0
141
12.0
290
     0
  0
SCALE
  5
1DCB0
102
{ACAD_REACTORS
330
A11
102
}
330
A11
100
AcDbScale
 70
     0
300
1'-0" = 1'-0"
140
12.0
141
12.0
290
     1
  0
ACDBSECTIONVIEWSTYLE
  5
5C43E
102
{ACAD_XDICTIONARY
360
A21DD
102
}
102
{ACAD_REACTORS
330
5C43D
102
}
330
5C43D
100
AcDbModelDocViewStyle
 70
     0
  3
Imperial24
290
     0
100
AcDbSectionViewStyle
 70
     0
 71
     0
 90
       78
 71
     1
340
11
 62
   256
 40
0.24
340
0
340
0
 62
   256
 40
0.24
300
I, O, Q, S, X, Z
 40
0.48
 90
        3
 40
0.18
 90
        1
 71
     2
340
16
 90
       25
 62
   256
340
16
 90
       50
 62
   256
 40
0.24
 40
0.0
 40
0.24
 71
     3
340
11
 62
   256
 40
0.24
 90
        1
 40
0.75
 90
        1
300
%<\AcVar ViewType \f "%tc1">% %<\AcVar ViewSectionStartId>%-%<\AcVar ViewSectionEndId>%\PSCALE %<\AcVar ViewScale \f "%sn">%
 71
     4
 62
   256
 62
   257
300
ANSI31
 40
1.0
 90
        0
290
     0
290
     0
 90
        6
 40
0.0
 40
1.570796326794896
 40
0.2617993877991494
 40
1.308996938995747
 40
-0.2617993877991494
 40
1.832595714594046
  0
TABLESTYLE
  5
87
102
{ACAD_XDICTIONARY
360
B4E
102
}
102
{ACAD_REACTORS
330
86
102
}
330
86
100
AcDbTableStyle
280
     0
  3
Standard
 70
     0
 71
     0
 40
0.06
 41
0.06
280
     0
281
     0
  7
Standard
140
0.18
170
     2
 62
     0
 63
     7
283
     0
 90
      512
 91
        0
  1

274
    -2
284
     1
 64
     0
275
    -2
285
     1
 65
     0
276
    -2
286
     1
 66
     0
277
    -2
287
     1
 67
     0
278
    -2
288
     1
 68
     0
279
    -2
289
     1
 69
     0
  7
Standard
140
0.25
170
     5
 62
     0
 63
     7
283
     0
 90
      512
 91
        0
  1

274
    -2
284
     1
 64
     0
275
    -2
285
     1
 65
     0
276
    -2
286
     1
 66
     0
277
    -2
287
     1
 67
     0
278
    -2
288
     1
 68
     0
279
    -2
289
     1
 69
     0
  7
Standard
140
0.18
170
     5
 62
     0
 63
     7
283
     0
 90
      512
 91
        0
  1

274
    -2
284
     1
 64
     0
275
    -2
285
     1
 65
     0
276
    -2
286
     1
 66
     0
277
    -2
287
     1
 67
     0
278
    -2
288
     1
 68
     0
279
    -2
289
     1
 69
     0
  0
VISUALSTYLE
  5
9F
102
{ACAD_REACTORS
330
99
102
}
330
99
100
AcDbVisualStyle
  2
2dWireframe
 70
     4
177
     3
291
     0
 70
    58
 90
        0
176
     1
 90
        2
176
     1
 90
        1
176
     1
 90
        0
176
     1
 40
0.6
176
     1
 40
30.0
176
     1
 62
     7
420
 16777215
176
     1
 90
        1
176
     1
 90
        4
176
     1
 62
     7
176
     1
 62
   257
176
     1
 90
        1
176
     1
 90
        1
176
     1
 40
1.0
176
     1
 90
        0
176
     1
 62
   257
176
     1
 40
1.0
176
     1
 90
        1
176
     1
 90
        6
176
     1
 90
        2
176
     1
 62
     7
176
     1
 90
        5
176
     1
 90
        0
176
     1
 90
        0
176
     1
290
     0
176
     1
 90
        1
176
     1
 40
0.0
176
     1
 90
        0
176
     1
290
     1
176
     1
290
     1
176
     1
290
     0
176
     1
290
     0
176
     1
290
     0
176
     1
290
     0
176
     1
290
     0
176
     1
290
     0
176
     1
290
     0
176
     1
 90
       50
176
     1
 40
0.0
176
     1
 40
1.0
176
     1
 90
        0
176
     1
 62
    18
420
        0
176
     1
 90
       50
176
     1
 90
        3
176
     1
 62
     5
420
      255
176
     1
290
     0
176
     1
 90
       50
176
     1
 90
       50
176
     1
 90
       50
176
     1
290
     0
176
     1
 90
       50
176
     1
 62
   256
176
     0
 40
1.0
176
     0
 90
        2
176
     1
  1
strokes_ogs.tif
176
     1
290
     0
176
     1
 40
1.0
176
     1
 40
1.0
176
     1
  0
VISUALSTYLE
  5
A1
102
{ACAD_REACTORS
330
99
102
}
330
99
100
AcDbVisualStyle
  2
3D Hidden
 70
     6
177
     3
291
     0
 70
    58
 90
        1
176
     1
 90
        2
176
     1
 90
        2
176
     1
 90
        0
176
     1
 40
0.6
176
     1
 40
30.0
176
     1
 62
     7
420
 16777215
176
     1
 90
        2
176
     1
 90
        2
176
     1
 62
     7
176
     1
 62
   257
176
     1
 90
        2
176
     1
 90
        1
176
     1
 40
40.0
176
     1
 90
        0
176
     1
 62
   257
176
     1
 40
1.0
176
     1
 90
        1
176
     1
 90
        6
176
     1
 90
        2
176
     1
 62
     7
176
     1
 90
        3
176
     1
 90
        0
176
     1
 90
        0
176
     1
290
     0
176
     1
 90
        1
176
     1
 40
0.0
176
     1
 90
        0
176
     1
290
     0
176
     1
290
     1
176
     1
290
     1
176
     1
290
     0
176
     1
290
     0
176
     1
290
     0
176
     1
290
     0
176
     1
290
     0
176
     1
290
     0
176
     1
 90
       50
176
     1
 40
0.0
176
     1
 40
1.0
176
     1
 90
        0
176
     1
 62
    18
420
        0
176
     1
 90
       50
176
     1
 90
        3
176
     1
 62
     5
420
      255
176
     1
290
     0
176
     1
 90
       50
176
     1
 90
       50
176
     1
 90
       50
176
     1
290
     0
176
     1
 90
       50
176
     1
 62
   256
176
     0
 40
1.0
176
     0
 90
        2
176
     1
  1
strokes_ogs.tif
176
     1
290
     0
176
     1
 40
1.0
176
     1
 40
1.0
176
     1
  0
VISUALSTYLE
  5
A0
102
{ACAD_REACTORS
330
99
102
}
330
99
100
AcDbVisualStyle
  2
3dWireframe
 70
     5
177
     3
291
     0
 70
    58
 90
        0
176
     1
 90
        2
176
     1
 90
        1
176
     1
 90
        0
176
     1
 40
0.6
176
     1
 40
30.0
176
     1
 62
     7
420
 16777215
176
     1
 90
        1
176
     1
 90
        4
176
     1
 62
     7
176
     1
 62
   257
176
     1
 90
        1
176
     1
 90
        1
176
     1
 40
1.0
176
     1
 90
        0
176
     1
 62
   257
176
     1
 40
1.0
176
     1
 90
        1
176
     1
 90
        6
176
     1
 90
        2
176
     1
 62
     7
176
     1
 90
        5
176
     1
 90
        0
176
     1
 90
        0
176
     1
290
     0
176
     1
 90
        1
176
     1
 40
0.0
176
     1
 90
        0
176
     1
290
     0
176
     1
290
     1
176
     1
290
     1
176
     1
290
     0
176
     1
290
     0
176
     1
290
     0
176
     1
290
     0
176
     1
290
     0
176
     1
290
     0
176
     1
 90
       50
176
     1
 40
0.0
176
     1
 40
1.0
176
     1
 90
        0
176
     1
 62
    18
420
        0
176
     1
 90
       50
176
     1
 90
        3
176
     1
 62
     5
420
      255
176
     1
290
     0
176
     1
 90
       50
176
     1
 90
       50
176
     1
 90
       50
176
     1
290
     0
176
     1
 90
       50
176
     1
 62
   256
176
     0
 40
1.0
176
     0
 90
        2
176
     1
  1
strokes_ogs.tif
176
     1
290
     0
176
     1
 40
1.0
176
     1
 40
1.0
176
     1
  0
VISUALSTYLE
  5
9E
102
{ACAD_REACTORS
330
99
102
}
330
99
100
AcDbVisualStyle
  2
Basic
 70
     7
177
     3
291
     1
 70
    58
 90
        1
176
     1
 90
        0
176
     1
 90
        1
176
     1
 90
        0
176
     1
 40
0.6
176
     1
 40
30.0
176
     1
 62
     7
420
 16777215
176
     1
 90
        0
176
     1
 90
        4
176
     1
 62
     7
176
     1
 62
   257
176
     1
 90
        1
176
     1
 90
        1
176
     1
 40
1.0
176
     1
 90
        8
176
     1
 62
     7
176
     1
 40
1.0
176
     1
 90
        1
176
     1
 90
        6
176
     1
 90
        2
176
     1
 62
     7
176
     1
 90
        5
176
     1
 90
        0
176
     1
 90
        0
176
     1
290
     0
176
     1
 90
        1
176
     1
 40
0.0
176
     1
 90
        0
176
     1
290
     0
176
     1
290
     1
176
     1
290
     1
176
     1
290
     0
176
     1
290
     0
176
     1
290
     0
176
     1
290
     0
176
     1
290
     0
176
     1
290
     0
176
     1
 90
       50
176
     1
 40
0.0
176
     1
 40
1.0
176
     1
 90
        0
176
     1
 62
    18
420
        0
176
     1
 90
       50
176
     1
 90
        3
176
     1
 62
     5
420
      255
176
     1
290
     0
176
     1
 90
       50
176
     1
 90
       50
176
     1
 90
       50
176
     1
290
     0
176
     1
 90
       50
176
     1
 62
   256
176
     0
 40
1.0
176
     0
 90
        2
176
     1
  1
strokes_ogs.tif
176
     1
290
     0
176
     1
 40
1.0
176
     1
 40
1.0
176
     1
  0
VISUALSTYLE
  5
A5
102
{ACAD_REACTORS
330
99
102
}
330
99
100
AcDbVisualStyle
  2
Brighten
 70
    12
177
     3
291
     1
 70
    58
 90
        2
176
     1
 90
        2
176
     1
 90
        1
176
     1
 90
        0
176
     1
 40
0.6
176
     1
 40
30.0
176
     1
 62
     7
420
 16777215
176
     1
 90
        1
176
     1
 90
        4
176
     1
 62
     7
176
     1
 62
   257
176
     1
 90
        1
176
     1
 90
        1
176
     1
 40
1.0
176
     1
 90
        8
176
     1
 62
     7
176
     1
 40
1.0
176
     1
 90
        1
176
     1
 90
        6
176
     1
 90
        2
176
     1
 62
     7
176
     1
 90
        5
176
     1
 90
        0
176
     1
 90
        0
176
     1
290
     0
176
     1
 90
        1
176
     1
 40
50.0
176
     1
 90
        0
176
     1
290
     0
176
     1
290
     1
176
     1
290
     1
176
     1
290
     0
176
     1
290
     0
176
     1
290
     0
176
     1
290
     0
176
     1
290
     0
176
     1
290
     0
176
     1
 90
       50
176
     1
 40
0.0
176
     1
 40
1.0
176
     1
 90
        0
176
     1
 62
    18
420
        0
176
     1
 90
       50
176
     1
 90
        3
176
     1
 62
     5
420
      255
176
     1
290
     0
176
     1
 90
       50
176
     1
 90
       50
176
     1
 90
       50
176
     1
290
     0
176
     1
 90
       50
176
     1
 62
   256
176
     0
 40
1.0
176
     0
 90
        2
176
     1
  1
strokes_ogs.tif
176
     1
290
     0
176
     1
 40
1.0
176
     1
 40
1.0
176
     1
  0
VISUALSTYLE
  5
A9
102
{ACAD_REACTORS
330
99
102
}
330
99
100
AcDbVisualStyle
  2
ColorChange
 70
    16
177
     3
291
     1
 70
    58
 90
        2
176
     1
 90
        2
176
     1
 90
        3
176
     1
 90
        0
176
     1
 40
0.6
176
     1
 40
30.0
176
     1
 62
     8
420
  8421504
176
     1
 90
        1
176
     1
 90
        4
176
     1
 62
     7
176
     1
 62
   257
176
     1
 90
        1
176
     1
 90
        1
176
     1
 40
1.0
176
     1
 90
        8
176
     1
 62
     8
420
  8421504
176
     1
 40
1.0
176
     1
 90
        1
176
     1
 90
        6
176
     1
 90
        2
176
     1
 62
     7
176
     1
 90
        5
176
     1
 90
        0
176
     1
 90
        0
176
     1
290
     0
176
     1
 90
        1
176
     1
 40
0.0
176
     1
 90
        0
176
     1
290
     0
176
     1
290
     1
176
     1
290
     1
176
     1
290
     0
176
     1
290
     0
176
     1
290
     0
176
     1
290
     0
176
     1
290
     0
176
     1
290
     0
176
     1
 90
       50
176
     1
 40
0.0
176
     1
 40
1.0
176
     1
 90
        0
176
     1
 62
    18
420
        0
176
     1
 90
       50
176
     1
 90
        3
176
     1
 62
     5
420
      255
176
     1
290
     0
176
     1
 90
       50
176
     1
 90
       50
176
     1
 90
       50
176
     1
290
     0
176
     1
 90
       50
176
     1
 62
   256
176
     0
 40
1.0
176
     0
 90
        2
176
     1
  1
strokes_ogs.tif
176
     1
290
     0
176
     1
 40
1.0
176
     1
 40
1.0
176
     1
  0
VISUALSTYLE
  5
A2
102
{ACAD_REACTORS
330
99
102
}
330
99
100
AcDbVisualStyle
  2
Conceptual
 70
     9
177
     3
291
     0
 70
    58
 90
        3
176
     1
 90
        2
176
     1
 90
        1
176
     1
 90
        0
176
     1
 40
0.6
176
     1
 40
30.0
176
     1
 62
     7
420
 16777215
176
     1
 90
        2
176
     1
 90
        2
176
     1
 62
     7
176
     1
 62
   257
176
     1
 90
        1
176
     1
 90
        1
176
     1
 40
40.0
176
     1
 90
        8
176
     1
 62
     7
176
     1
 40
1.0
176
     1
 90
        1
176
     1
 90
        6
176
     1
 90
        2
176
     1
 62
     7
176
     1
 90
        3
176
     1
 90
        0
176
     1
 90
        0
176
     1
290
     0
176
     1
 90
        1
176
     1
 40
0.0
176
     1
 90
        0
176
     1
290
     0
176
     1
290
     1
176
     1
290
     1
176
     1
290
     0
176
     1
290
     0
176
     1
290
     0
176
     1
290
     0
176
     1
290
     0
176
     1
290
     0
176
     1
 90
       50
176
     1
 40
0.0
176
     1
 40
1.0
176
     1
 90
        0
176
     1
 62
    18
420
        0
176
     1
 90
       50
176
     1
 90
        3
176
     1
 62
     5
420
      255
176
     1
290
     0
176
     1
 90
       50
176
     1
 90
       50
176
     1
 90
       50
176
     1
290
     0
176
     1
 90
       50
176
     1
 62
   256
176
     0
 40
1.0
176
     0
 90
        2
176
     1
  1
strokes_ogs.tif
176
     1
290
     0
176
     1
 40
1.0
176
     1
 40
1.0
176
     1
  0
VISUALSTYLE
  5
A4
102
{ACAD_REACTORS
330
99
102
}
330
99
100
AcDbVisualStyle
  2
Dim
 70
    11
177
     3
291
     1
 70
    58
 90
        2
176
     1
 90
        2
176
     1
 90
        1
176
     1
 90
        0
176
     1
 40
0.6
176
     1
 40
30.0
176
     1
 62
     7
420
 16777215
176
     1
 90
        1
176
     1
 90
        4
176
     1
 62
     7
176
     1
 62
   257
176
     1
 90
        1
176
     1
 90
        1
176
     1
 40
1.0
176
     1
 90
        8
176
     1
 62
     7
176
     1
 40
1.0
176
     1
 90
        1
176
     1
 90
        6
176
     1
 90
        2
176
     1
 62
     7
176
     1
 90
        5
176
     1
 90
        0
176
     1
 90
        0
176
     1
290
     0
176
     1
 90
        1
176
     1
 40
-50.0
176
     1
 90
        0
176
     1
290
     0
176
     1
290
     1
176
     1
290
     1
176
     1
290
     0
176
     1
290
     0
176
     1
290
     0
176
     1
290
     0
176
     1
290
     0
176
     1
290
     0
176
     1
 90
       50
176
     1
 40
0.0
176
     1
 40
1.0
176
     1
 90
        0
176
     1
 62
    18
420
        0
176
     1
 90
       50
176
     1
 90
        3
176
     1
 62
     5
420
      255
176
     1
290
     0
176
     1
 90
       50
176
     1
 90
       50
176
     1
 90
       50
176
     1
290
     0
176
     1
 90
       50
176
     1
 62
   256
176
     0
 40
1.0
176
     0
 90
        2
176
     1
  1
strokes_ogs.tif
176
     1
290
     0
176
     1
 40
1.0
176
     1
 40
1.0
176
     1
  0
VISUALSTYLE
  5
5C43C
102
{ACAD_REACTORS
330
99
102
}
330
99
100
AcDbVisualStyle
  2
EdgeColorOff
 70
    22
177
     3
291
     1
 70
    58
 90
        2
176
     0
 90
        2
176
     0
 90
        0
176
     0
 90
        0
176
     0
 40
0.6
176
     0
 40
30.0
176
     0
 62
     7
420
 16777215
176
     0
 90
        1
176
     0
 90
        4
176
     0
 62
     7
176
     0
 62
   257
176
     0
 90
        1
176
     0
 90
        1
176
     0
 40
1.0
176
     0
 90
        8
176
     2
 62
     7
176
     0
 40
1.0
176
     0
 90
        1
176
     0
 90
        6
176
     0
 90
        2
176
     0
 62
     7
176
     0
 90
        5
176
     0
 90
        0
176
     0
 90
        0
176
     0
290
     0
176
     0
 90
        1
176
     0
 40
0.0
176
     0
 90
        0
176
     0
290
     0
176
     0
290
     1
176
     0
290
     1
176
     0
290
     0
176
     0
290
     0
176
     0
290
     0
176
     0
290
     0
176
     0
290
     0
176
     0
290
     0
176
     0
 90
       50
176
     0
 40
0.0
176
     0
 40
1.0
176
     0
 90
        0
176
     0
 62
    18
420
        0
176
     0
 90
       50
176
     0
 90
        3
176
     0
 62
     5
420
      255
176
     0
290
     0
176
     0
 90
       50
176
     0
 90
       50
176
     0
 90
       50
176
     0
290
     0
176
     0
 90
       50
176
     0
 62
   256
176
     0
 40
1.0
176
     0
 90
        2
176
     0
  1
strokes_ogs.tif
176
     0
290
     0
176
     0
 40
1.0
176
     0
 40
1.0
176
     0
  0
VISUALSTYLE
  5
A8
102
{ACAD_REACTORS
330
99
102
}
330
99
100
AcDbVisualStyle
  2
Facepattern
 70
    15
177
     3
291
     1
 70
    58
 90
        2
176
     1
 90
        2
176
     1
 90
        1
176
     1
 90
        0
176
     1
 40
0.6
176
     1
 40
30.0
176
     1
 62
     7
420
 16777215
176
     1
 90
        1
176
     1
 90
        4
176
     1
 62
     7
176
     1
 62
   257
176
     1
 90
        1
176
     1
 90
        1
176
     1
 40
1.0
176
     1
 90
        8
176
     1
 62
     7
176
     1
 40
1.0
176
     1
 90
        1
176
     1
 90
        6
176
     1
 90
        2
176
     1
 62
     7
176
     1
 90
        5
176
     1
 90
        0
176
     1
 90
        0
176
     1
290
     0
176
     1
 90
        1
176
     1
 40
0.0
176
     1
 90
        0
176
     1
290
     0
176
     1
290
     1
176
     1
290
     1
176
     1
290
     0
176
     1
290
     0
176
     1
290
     0
176
     1
290
     0
176
     1
290
     0
176
     1
290
     0
176
     1
 90
       50
176
     1
 40
0.0
176
     1
 40
1.0
176
     1
 90
        0
176
     1
 62
    18
420
        0
176
     1
 90
       50
176
     1
 90
        3
176
     1
 62
     5
420
      255
176
     1
290
     0
176
     1
 90
       50
176
     1
 90
       50
176
     1
 90
       50
176
     1
290
     0
176
     1
 90
       50
176
     1
 62
   256
176
     0
 40
1.0
176
     0
 90
        2
176
     1
  1
strokes_ogs.tif
176
     1
290
     0
176
     1
 40
1.0
176
     1
 40
1.0
176
     1
  0
VISUALSTYLE
  5
9A
102
{ACAD_REACTORS
330
99
102
}
330
99
100
AcDbVisualStyle
  2
Flat
 70
     0
177
     3
291
     1
 70
    58
 90
        2
176
     1
 90
        1
176
     1
 90
        1
176
     1
 90
        2
176
     1
 40
0.6
176
     1
 40
30.0
176
     1
 62
     7
420
 16777215
176
     1
 90
        0
176
     1
 90
        4
176
     1
 62
     7
176
     1
 62
   257
176
     1
 90
        1
176
     1
 90
        1
176
     1
 40
1.0
176
     1
 90
        8
176
     1
 62
     7
176
     1
 40
1.0
176
     1
 90
        1
176
     1
 90
        6
176
     1
 90
        2
176
     1
 62
     7
176
     1
 90
        5
176
     1
 90
        0
176
     1
 90
        0
176
     1
290
     0
176
     1
 90
        1
176
     1
 40
0.0
176
     1
 90
        0
176
     1
290
     0
176
     1
290
     1
176
     1
290
     1
176
     1
290
     0
176
     1
290
     0
176
     1
290
     0
176
     1
290
     0
176
     1
290
     0
176
     1
290
     0
176
     1
 90
       50
176
     1
 40
0.0
176
     1
 40
1.0
176
     1
 90
        0
176
     1
 62
    18
420
        0
176
     1
 90
       50
176
     1
 90
        3
176
     1
 62
     5
420
      255
176
     1
290
     0
176
     1
 90
       50
176
     1
 90
       50
176
     1
 90
       50
176
     1
290
     0
176
     1
 90
       50
176
     1
 62
   256
176
     0
 40
1.0
176
     0
 90
        2
176
     1
  1
strokes_ogs.tif
176
     1
290
     0
176
     1
 40
1.0
176
     1
 40
1.0
176
     1
  0
VISUALSTYLE
  5
9B
102
{ACAD_REACTORS
330
99
102
}
330
99
100
AcDbVisualStyle
  2
FlatWithEdges
 70
     1
177
     3
291
     1
 70
    58
 90
        2
176
     1
 90
        1
176
     1
 90
        1
176
     1
 90
        2
176
     1
 40
0.6
176
     1
 40
30.0
176
     1
 62
     7
420
 16777215
176
     1
 90
        1
176
     1
 90
        4
176
     1
 62
     7
176
     1
 62
   257
176
     1
 90
        1
176
     1
 90
        1
176
     1
 40
1.0
176
     1
 90
        0
176
     1
 62
   257
176
     1
 40
1.0
176
     1
 90
        1
176
     1
 90
        6
176
     1
 90
        2
176
     1
 62
     7
176
     1
 90
        5
176
     1
 90
        0
176
     1
 90
        0
176
     1
290
     0
176
     1
 90
        1
176
     1
 40
0.0
176
     1
 90
        0
176
     1
290
     0
176
     1
290
     1
176
     1
290
     1
176
     1
290
     0
176
     1
290
     0
176
     1
290
     0
176
     1
290
     0
176
     1
290
     0
176
     1
290
     0
176
     1
 90
       50
176
     1
 40
0.0
176
     1
 40
1.0
176
     1
 90
        0
176
     1
 62
    18
420
        0
176
     1
 90
       50
176
     1
 90
        3
176
     1
 62
     5
420
      255
176
     1
290
     0
176
     1
 90
       50
176
     1
 90
       50
176
     1
 90
       50
176
     1
290
     0
176
     1
 90
       50
176
     1
 62
   256
176
     0
 40
1.0
176
     0
 90
        2
176
     1
  1
strokes_ogs.tif
176
     1
290
     0
176
     1
 40
1.0
176
     1
 40
1.0
176
     1
  0
VISUALSTYLE
  5
9C
102
{ACAD_REACTORS
330
99
102
}
330
99
100
AcDbVisualStyle
  2
Gouraud
 70
     2
177
     3
291
     1
 70
    58
 90
        2
176
     1
 90
        2
176
     1
 90
        1
176
     1
 90
        2
176
     1
 40
0.6
176
     1
 40
30.0
176
     1
 62
     7
420
 16777215
176
     1
 90
        0
176
     1
 90
        4
176
     1
 62
     7
176
     1
 62
   257
176
     1
 90
        1
176
     1
 90
        1
176
     1
 40
1.0
176
     1
 90
        0
176
     1
 62
     7
176
     1
 40
1.0
176
     1
 90
        1
176
     1
 90
        6
176
     1
 90
        2
176
     1
 62
     7
176
     1
 90
        5
176
     1
 90
        0
176
     1
 90
        0
176
     1
290
     0
176
     1
 90
        1
176
     1
 40
0.0
176
     1
 90
        0
176
     1
290
     0
176
     1
290
     1
176
     1
290
     1
176
     1
290
     0
176
     1
290
     0
176
     1
290
     0
176
     1
290
     0
176
     1
290
     0
176
     1
290
     0
176
     1
 90
       50
176
     1
 40
0.0
176
     1
 40
1.0
176
     1
 90
        0
176
     1
 62
    18
420
        0
176
     1
 90
       50
176
     1
 90
        3
176
     1
 62
     5
420
      255
176
     1
290
     0
176
     1
 90
       50
176
     1
 90
       50
176
     1
 90
       50
176
     1
290
     0
176
     1
 90
       50
176
     1
 62
   256
176
     0
 40
1.0
176
     0
 90
        2
176
     1
  1
strokes_ogs.tif
176
     1
290
     0
176
     1
 40
1.0
176
     1
 40
1.0
176
     1
  0
VISUALSTYLE
  5
9D
102
{ACAD_REACTORS
330
99
102
}
330
99
100
AcDbVisualStyle
  2
GouraudWithEdges
 70
     3
177
     3
291
     1
 70
    58
 90
        2
176
     1
 90
        2
176
     1
 90
        1
176
     1
 90
        2
176
     1
 40
0.6
176
     1
 40
30.0
176
     1
 62
     7
420
 16777215
176
     1
 90
        1
176
     1
 90
        4
176
     1
 62
     7
176
     1
 62
   257
176
     1
 90
        1
176
     1
 90
        1
176
     1
 40
1.0
176
     1
 90
        0
176
     1
 62
   257
176
     1
 40
1.0
176
     1
 90
        1
176
     1
 90
        6
176
     1
 90
        2
176
     1
 62
     7
176
     1
 90
        5
176
     1
 90
        0
176
     1
 90
        0
176
     1
290
     0
176
     1
 90
        1
176
     1
 40
0.0
176
     1
 90
        0
176
     1
290
     0
176
     1
290
     1
176
     1
290
     1
176
     1
290
     0
176
     1
290
     0
176
     1
290
     0
176
     1
290
     0
176
     1
290
     0
176
     1
290
     0
176
     1
 90
       50
176
     1
 40
0.0
176
     1
 40
1.0
176
     1
 90
        0
176
     1
 62
    18
420
        0
176
     1
 90
       50
176
     1
 90
        3
176
     1
 62
     5
420
      255
176
     1
290
     0
176
     1
 90
       50
176
     1
 90
       50
176
     1
 90
       50
176
     1
290
     0
176
     1
 90
       50
176
     1
 62
   256
176
     0
 40
1.0
176
     0
 90
        2
176
     1
  1
strokes_ogs.tif
176
     1
290
     0
176
     1
 40
1.0
176
     1
 40
1.0
176
     1
  0
VISUALSTYLE
  5
5C434
102
{ACAD_REACTORS
330
99
102
}
330
99
100
AcDbVisualStyle
  2
Hidden
 70
     6
177
     3
291
     0
 70
    58
 90
        1
176
     1
 90
        2
176
     1
 90
        2
176
     1
 90
        0
176
     1
 40
0.6
176
     1
 40
30.0
176
     1
 62
     7
420
 16777215
176
     1
 90
        2
176
     1
 90
        2
176
     1
 62
     7
176
     1
 62
   257
176
     1
 90
        2
176
     1
 90
        1
176
     1
 40
40.0
176
     1
 90
        0
176
     1
 62
   257
176
     1
 40
1.0
176
     1
 90
        1
176
     1
 90
        6
176
     1
 90
        2
176
     1
 62
     7
176
     1
 90
        3
176
     1
 90
        0
176
     1
 90
        0
176
     1
290
     0
176
     1
 90
        1
176
     1
 40
0.0
176
     1
 90
        0
176
     1
290
     0
176
     1
290
     1
176
     1
290
     1
176
     1
290
     0
176
     1
290
     0
176
     1
290
     0
176
     1
290
     0
176
     1
290
     0
176
     1
290
     0
176
     1
 90
       50
176
     1
 40
0.0
176
     1
 40
1.0
176
     1
 90
        0
176
     1
 62
    18
420
        0
176
     1
 90
       50
176
     1
 90
        3
176
     1
 62
     5
420
      255
176
     1
290
     0
176
     1
 90
       50
176
     1
 90
       50
176
     1
 90
       50
176
     1
290
     0
176
     1
 90
       50
176
     1
 62
   256
176
     0
 40
1.0
176
     0
 90
        2
176
     1
  1
strokes_ogs.tif
176
     1
290
     0
176
     1
 40
1.0
176
     1
 40
1.0
176
     1
  0
VISUALSTYLE
  5
5C43A
102
{ACAD_REACTORS
330
99
102
}
330
99
100
AcDbVisualStyle
  2
JitterOff
 70
    20
177
     3
291
     1
 70
    58
 90
        2
176
     0
 90
        2
176
     0
 90
        0
176
     0
 90
        0
176
     0
 40
0.6
176
     0
 40
30.0
176
     0
 62
     7
420
 16777215
176
     0
 90
        1
176
     0
 90
        4
176
     0
 62
     7
176
     0
 62
   257
176
     0
 90
        1
176
     0
 90
        1
176
     0
 40
1.0
176
     0
 90
       10
176
     2
 62
     7
176
     0
 40
1.0
176
     0
 90
        1
176
     0
 90
        6
176
     0
 90
        2
176
     0
 62
     7
176
     0
 90
        5
176
     0
 90
        0
176
     0
 90
        0
176
     0
290
     0
176
     0
 90
        1
176
     0
 40
0.0
176
     0
 90
        0
176
     0
290
     0
176
     0
290
     1
176
     0
290
     1
176
     0
290
     0
176
     0
290
     0
176
     0
290
     0
176
     0
290
     0
176
     0
290
     0
176
     0
290
     0
176
     0
 90
       50
176
     0
 40
0.0
176
     0
 40
1.0
176
     0
 90
        0
176
     0
 62
    18
420
        0
176
     0
 90
       50
176
     0
 90
        3
176
     0
 62
     5
420
      255
176
     0
290
     0
176
     0
 90
       50
176
     0
 90
       50
176
     0
 90
       50
176
     0
290
     0
176
     0
 90
       50
176
     0
 62
   256
176
     0
 40
1.0
176
     0
 90
        2
176
     0
  1
strokes_ogs.tif
176
     0
290
     0
176
     0
 40
1.0
176
     0
 40
1.0
176
     0
  0
VISUALSTYLE
  5
A7
102
{ACAD_REACTORS
330
99
102
}
330
99
100
AcDbVisualStyle
  2
Linepattern
 70
    14
177
     3
291
     1
 70
    58
 90
        2
176
     1
 90
        2
176
     1
 90
        1
176
     1
 90
        0
176
     1
 40
0.6
176
     1
 40
30.0
176
     1
 62
     7
420
 16777215
176
     1
 90
        1
176
     1
 90
        4
176
     1
 62
     7
176
     1
 62
   257
176
     1
 90
        7
176
     1
 90
        7
176
     1
 40
1.0
176
     1
 90
        8
176
     1
 62
     7
176
     1
 40
1.0
176
     1
 90
        1
176
     1
 90
        6
176
     1
 90
        2
176
     1
 62
     7
176
     1
 90
        5
176
     1
 90
        0
176
     1
 90
        0
176
     1
290
     0
176
     1
 90
        1
176
     1
 40
0.0
176
     1
 90
        0
176
     1
290
     0
176
     1
290
     1
176
     1
290
     1
176
     1
290
     0
176
     1
290
     0
176
     1
290
     0
176
     1
290
     0
176
     1
290
     0
176
     1
290
     0
176
     1
 90
       50
176
     1
 40
0.0
176
     1
 40
1.0
176
     1
 90
        0
176
     1
 62
    18
420
        0
176
     1
 90
       50
176
     1
 90
        3
176
     1
 62
     5
420
      255
176
     1
290
     0
176
     1
 90
       50
176
     1
 90
       50
176
     1
 90
       50
176
     1
290
     0
176
     1
 90
       50
176
     1
 62
   256
176
     0
 40
1.0
176
     0
 90
        2
176
     1
  1
strokes_ogs.tif
176
     1
290
     0
176
     1
 40
1.0
176
     1
 40
1.0
176
     1
  0
VISUALSTYLE
  5
5C43B
102
{ACAD_REACTORS
330
99
102
}
330
99
100
AcDbVisualStyle
  2
OverhangOff
 70
    21
177
     3
291
     1
 70
    58
 90
        2
176
     0
 90
        2
176
     0
 90
        0
176
     0
 90
        0
176
     0
 40
0.6
176
     0
 40
30.0
176
     0
 62
     7
420
 16777215
176
     0
 90
        1
176
     0
 90
        4
176
     0
 62
     7
176
     0
 62
   257
176
     0
 90
        1
176
     0
 90
        1
176
     0
 40
1.0
176
     0
 90
        9
176
     2
 62
     7
176
     0
 40
1.0
176
     0
 90
        1
176
     0
 90
        6
176
     0
 90
        2
176
     0
 62
     7
176
     0
 90
        5
176
     0
 90
        0
176
     0
 90
        0
176
     0
290
     0
176
     0
 90
        1
176
     0
 40
0.0
176
     0
 90
        0
176
     0
290
     0
176
     0
290
     1
176
     0
290
     1
176
     0
290
     0
176
     0
290
     0
176
     0
290
     0
176
     0
290
     0
176
     0
290
     0
176
     0
290
     0
176
     0
 90
       50
176
     0
 40
0.0
176
     0
 40
1.0
176
     0
 90
        0
176
     0
 62
    18
420
        0
176
     0
 90
       50
176
     0
 90
        3
176
     0
 62
     5
420
      255
176
     0
290
     0
176
     0
 90
       50
176
     0
 90
       50
176
     0
 90
       50
176
     0
290
     0
176
     0
 90
       50
176
     0
 62
   256
176
     0
 40
1.0
176
     0
 90
        2
176
     0
  1
strokes_ogs.tif
176
     0
290
     0
176
     0
 40
1.0
176
     0
 40
1.0
176
     0
  0
VISUALSTYLE
  5
A3
102
{ACAD_REACTORS
330
99
102
}
330
99
100
AcDbVisualStyle
  2
Realistic
 70
     8
177
     3
291
     0
 70
    58
 90
        2
176
     1
 90
        2
176
     1
 90
        1
176
     1
 90
        0
176
     1
 40
0.6
176
     1
 40
30.0
176
     1
 62
     7
420
 16777215
176
     1
 90
        1
176
     1
 90
        0
176
     1
 62
     7
176
     1
 62
   257
176
     1
 90
        1
176
     1
 90
        1
176
     1
 40
1.0
176
     1
 90
        8
176
     1
 62
     8
420
  7895160
176
     1
 40
1.0
176
     1
 90
        1
176
     1
 90
        6
176
     1
 90
        2
176
     1
 62
     7
176
     1
 90
        5
176
     1
 90
        0
176
     1
 90
        0
176
     1
290
     0
176
     1
 90
       13
176
     1
 40
0.0
176
     1
 90
        0
176
     1
290
     0
176
     1
290
     1
176
     1
290
     1
176
     1
290
     0
176
     1
290
     0
176
     1
290
     0
176
     1
290
     0
176
     1
290
     0
176
     1
290
     0
176
     1
 90
       50
176
     1
 40
0.0
176
     1
 40
1.0
176
     1
 90
        0
176
     1
 62
    18
420
        0
176
     1
 90
       50
176
     1
 90
        3
176
     1
 62
     5
420
      255
176
     1
290
     0
176
     1
 90
       50
176
     1
 90
       50
176
     1
 90
       50
176
     1
290
     0
176
     1
 90
       50
176
     1
 62
   256
176
     0
 40
1.0
176
     0
 90
        2
176
     1
  1
strokes_ogs.tif
176
     1
290
     0
176
     1
 40
1.0
176
     1
 40
1.0
176
     1
  0
VISUALSTYLE
  5
5C439
102
{ACAD_REACTORS
330
99
102
}
330
99
100
AcDbVisualStyle
  2
Shaded
 70
    27
177
     3
291
     0
 70
    58
 90
        2
176
     1
 90
        2
176
     1
 90
        1
176
     1
 90
        2
176
     1
 40
0.6
176
     1
 40
30.0
176
     1
 62
     7
420
 16777215
176
     1
 90
        0
176
     1
 90
        4
176
     1
 62
     7
176
     1
 62
   257
176
     1
 90
        1
176
     1
 90
        1
176
     1
 40
1.0
176
     1
 90
        8
176
     1
 62
   257
176
     1
 40
1.0
176
     1
 90
        1
176
     1
 90
        6
176
     1
 90
        2
176
     1
 62
     8
420
  7895160
176
     1
 90
        3
176
     1
 90
        0
176
     1
 90
        0
176
     1
290
     0
176
     1
 90
        5
176
     1
 40
0.0
176
     1
 90
        0
176
     1
290
     0
176
     1
290
     1
176
     1
290
     1
176
     1
290
     0
176
     1
290
     0
176
     1
290
     0
176
     1
290
     0
176
     1
290
     0
176
     1
290
     0
176
     1
 90
       50
176
     1
 40
0.0
176
     1
 40
1.0
176
     1
 90
        0
176
     1
 62
    18
420
        0
176
     1
 90
       50
176
     1
 90
        3
176
     1
 62
     5
420
      255
176
     1
290
     0
176
     1
 90
       50
176
     1
 90
       50
176
     1
 90
       50
176
     1
290
     0
176
     1
 90
       50
176
     1
 62
   256
176
     0
 40
1.0
176
     0
 90
        2
176
     1
  1
strokes_ogs.tif
176
     1
290
     0
176
     1
 40
1.0
176
     1
 40
1.0
176
     1
  0
VISUALSTYLE
  5
5C438
102
{ACAD_REACTORS
330
99
102
}
330
99
100
AcDbVisualStyle
  2
Shaded with edges
 70
    26
177
     3
291
     0
 70
    58
 90
        2
176
     1
 90
        2
176
     1
 90
        1
176
     1
 90
        2
176
     1
 40
0.6
176
     1
 40
30.0
176
     1
 62
     7
420
 16777215
176
     1
 90
        1
176
     1
 90
       10
176
     1
 62
     7
176
     1
 62
   257
176
     1
 90
        2
176
     1
 90
        1
176
     1
 40
1.0
176
     1
 90
        8
176
     1
 62
   257
176
     1
 40
1.0
176
     1
 90
        1
176
     1
 90
        6
176
     1
 90
        2
176
     1
 62
     7
176
     1
 90
        3
176
     1
 90
        0
176
     1
 90
        0
176
     1
290
     0
176
     1
 90
        5
176
     1
 40
0.0
176
     1
 90
        0
176
     1
290
     0
176
     1
290
     1
176
     1
290
     1
176
     1
290
     0
176
     1
290
     0
176
     1
290
     0
176
     1
290
     0
176
     1
290
     0
176
     1
290
     0
176
     1
 90
       50
176
     1
 40
0.0
176
     1
 40
1.0
176
     1
 90
        0
176
     1
 62
    18
420
        0
176
     1
 90
       50
176
     1
 90
        3
176
     1
 62
     5
420
      255
176
     1
290
     0
176
     1
 90
       50
176
     1
 90
       50
176
     1
 90
       50
176
     1
290
     0
176
     1
 90
       50
176
     1
 62
   256
176
     0
 40
1.0
176
     0
 90
        2
176
     1
  1
strokes_ogs.tif
176
     1
290
     0
176
     1
 40
1.0
176
     1
 40
1.0
176
     1
  0
VISUALSTYLE
  5
5C435
102
{ACAD_REACTORS
330
99
102
}
330
99
100
AcDbVisualStyle
  2
Shades of Gray
 70
    23
177
     3
291
     0
 70
    58
 90
        2
176
     1
 90
        2
176
     1
 90
        3
176
     1
 90
        0
176
     1
 40
0.6
176
     1
 40
30.0
176
     1
 62
     7
420
 16777215
176
     1
 90
        2
176
     1
 90
        2
176
     1
 62
     7
176
     1
 62
     7
176
     1
 90
        1
176
     1
 90
        1
176
     1
 40
40.0
176
     1
 90
        8
176
     1
 62
     7
176
     1
 40
1.0
176
     1
 90
        1
176
     1
 90
        6
176
     1
 90
        2
176
     1
 62
     7
176
     1
 90
        3
176
     1
 90
        0
176
     1
 90
        0
176
     1
290
     0
176
     1
 90
        1
176
     1
 40
0.0
176
     1
 90
        0
176
     1
290
     0
176
     1
290
     1
176
     1
290
     1
176
     1
290
     0
176
     1
290
     0
176
     1
290
     0
176
     1
290
     0
176
     1
290
     0
176
     1
290
     0
176
     1
 90
       50
176
     1
 40
0.0
176
     1
 40
1.0
176
     1
 90
        0
176
     1
 62
    18
420
        0
176
     1
 90
       50
176
     1
 90
        3
176
     1
 62
     5
420
      255
176
     1
290
     0
176
     1
 90
       50
176
     1
 90
       50
176
     1
 90
       50
176
     1
290
     0
176
     1
 90
       50
176
     1
 62
   256
176
     0
 40
1.0
176
     0
 90
        2
176
     1
  1
strokes_ogs.tif
176
     1
290
     0
176
     1
 40
1.0
176
     1
 40
1.0
176
     1
  0
VISUALSTYLE
  5
5C436
102
{ACAD_REACTORS
330
99
102
}
330
99
100
AcDbVisualStyle
  2
Sketchy
 70
    24
177
     3
291
     0
 70
    58
 90
        1
176
     1
 90
        2
176
     1
 90
        2
176
     1
 90
        0
176
     1
 40
0.6
176
     1
 40
30.0
176
     1
 62
     7
420
 16777215
176
     1
 90
        2
176
     1
 90
        2
176
     1
 62
     7
176
     1
 62
     7
176
     1
 90
        1
176
     1
 90
        1
176
     1
 40
40.0
176
     1
 90
       11
176
     1
 62
     7
176
     1
 40
1.0
176
     1
 90
        1
176
     1
 90
        6
176
     1
 90
        2
176
     1
 62
     7
176
     1
 90
        6
176
     1
 90
        0
176
     1
 90
        0
176
     1
290
     0
176
     1
 90
        1
176
     1
 40
0.0
176
     1
 90
        0
176
     1
290
     0
176
     1
290
     1
176
     1
290
     1
176
     1
290
     0
176
     1
290
     0
176
     1
290
     0
176
     1
290
     0
176
     1
290
     0
176
     1
290
     0
176
     1
 90
       50
176
     1
 40
0.0
176
     1
 40
1.0
176
     1
 90
        0
176
     1
 62
    18
420
        0
176
     1
 90
       50
176
     1
 90
        3
176
     1
 62
     5
420
      255
176
     1
290
     0
176
     1
 90
       50
176
     1
 90
       50
176
     1
 90
       50
176
     1
290
     0
176
     1
 90
       50
176
     1
 62
   256
176
     0
 40
1.0
176
     0
 90
        2
176
     1
  1
strokes_ogs.tif
176
     1
290
     0
176
     1
 40
1.0
176
     1
 40
1.0
176
     1
  0
VISUALSTYLE
  5
A6
102
{ACAD_REACTORS
330
99
102
}
330
99
100
AcDbVisualStyle
  2
Thicken
 70
    13
177
     3
291
     1
 70
    58
 90
        2
176
     1
 90
        2
176
     1
 90
        1
176
     1
 90
        0
176
     1
 40
0.6
176
     1
 40
30.0
176
     1
 62
     7
420
 16777215
176
     1
 90
        1
176
     1
 90
        4
176
     1
 62
     7
176
     1
 62
   257
176
     1
 90
        1
176
     1
 90
        1
176
     1
 40
1.0
176
     1
 90
       12
176
     1
 62
     7
176
     1
 40
1.0
176
     1
 90
        1
176
     1
 90
        6
176
     1
 90
        2
176
     1
 62
     7
176
     1
 90
        5
176
     1
 90
        0
176
     1
 90
        0
176
     1
290
     0
176
     1
 90
        1
176
     1
 40
0.0
176
     1
 90
        0
176
     1
290
     0
176
     1
290
     1
176
     1
290
     1
176
     1
290
     0
176
     1
290
     0
176
     1
290
     0
176
     1
290
     0
176
     1
290
     0
176
     1
290
     0
176
     1
 90
       50
176
     1
 40
0.0
176
     1
 40
1.0
176
     1
 90
        0
176
     1
 62
    18
420
        0
176
     1
 90
       50
176
     1
 90
        3
176
     1
 62
     5
420
      255
176
     1
290
     0
176
     1
 90
       50
176
     1
 90
       50
176
     1
 90
       50
176
     1
290
     0
176
     1
 90
       50
176
     1
 62
   256
176
     0
 40
1.0
176
     0
 90
        2
176
     1
  1
strokes_ogs.tif
176
     1
290
     0
176
     1
 40
1.0
176
     1
 40
1.0
176
     1
  0
VISUALSTYLE
  5
5C433
102
{ACAD_REACTORS
330
99
102
}
330
99
100
AcDbVisualStyle
  2
Wireframe
 70
     5
177
     3
291
     0
 70
    58
 90
        0
176
     1
 90
        2
176
     1
 90
        0
176
     1
 90
        0
176
     1
 40
0.6
176
     1
 40
30.0
176
     1
 62
     7
420
 16777215
176
     1
 90
        1
176
     1
 90
        4
176
     1
 62
     7
176
     1
 62
   257
176
     1
 90
        1
176
     1
 90
        1
176
     1
 40
1.0
176
     1
 90
        0
176
     1
 62
   257
176
     1
 40
1.0
176
     1
 90
        1
176
     1
 90
        6
176
     1
 90
        2
176
     1
 62
     7
176
     1
 90
        3
176
     1
 90
        0
176
     1
 90
        0
176
     1
290
     0
176
     1
 90
        1
176
     1
 40
0.0
176
     1
 90
        0
176
     1
290
     0
176
     1
290
     1
176
     1
290
     1
176
     1
290
     0
176
     1
290
     0
176
     1
290
     0
176
     1
290
     0
176
     1
290
     0
176
     1
290
     0
176
     1
 90
       50
176
     1
 40
0.0
176
     1
 40
1.0
176
     1
 90
        0
176
     1
 62
    18
420
        0
176
     1
 90
       50
176
     1
 90
        3
176
     1
 62
     5
420
      255
176
     1
290
     0
176
     1
 90
       50
176
     1
 90
       50
176
     1
 90
       50
176
     1
290
     0
176
     1
 90
       50
176
     1
 62
   256
176
     0
 40
1.0
176
     0
 90
        2
176
     1
  1
strokes_ogs.tif
176
     1
290
     0
176
     1
 40
1.0
176
     1
 40
1.0
176
     1
  0
VISUALSTYLE
  5
5C437
102
{ACAD_REACTORS
330
99
102
}
330
99
100
AcDbVisualStyle
  2
X-Ray
 70
    25
177
     3
291
     0
 70
    58
 90
        2
176
     1
 90
        2
176
     1
 90
        1
176
     1
 90
        1
176
     1
 40
0.5
176
     1
 40
30.0
176
     1
 62
     7
420
 16777215
176
     1
 90
        1
176
     1
 90
        0
176
     1
 62
     7
176
     1
 62
   257
176
     1
 90
        1
176
     1
 90
        1
176
     1
 40
1.0
176
     1
 90
        8
176
     1
 62
     7
176
     1
 40
1.0
176
     1
 90
        1
176
     1
 90
        6
176
     1
 90
        2
176
     1
 62
     7
176
     1
 90
        3
176
     1
 90
        0
176
     1
 90
        0
176
     1
290
     0
176
     1
 90
       13
176
     1
 40
0.0
176
     1
 90
        0
176
     1
290
     0
176
     1
290
     1
176
     1
290
     1
176
     1
290
     0
176
     1
290
     0
176
     1
290
     0
176
     1
290
     0
176
     1
290
     0
176
     1
290
     0
176
     1
 90
       50
176
     1
 40
0.0
176
     1
 40
1.0
176
     1
 90
        0
176
     1
 62
    18
420
        0
176
     1
 90
       50
176
     1
 90
        3
176
     1
 62
     5
420
      255
176
     1
290
     0
176
     1
 90
       50
176
     1
 90
       50
176
     1
 90
       50
176
     1
290
     0
176
     1
 90
       50
176
     1
 62
   256
176
     0
 40
1.0
176
     0
 90
        2
176
     1
  1
strokes_ogs.tif
176
     1
290
     0
176
     1
 40
1.0
176
     1
 40
1.0
176
     1
  0
DICTIONARY
  5
5C6BF
102
{ACAD_REACTORS
330
5C6BE
102
}
330
5C6BE
100
AcDbDictionary
280
     1
281
     1
  3
DefaultStandard
360
9C879
  3
Standards
360
5C6C0
  0
DICTIONARYVAR
  5
B5D
102
{ACAD_REACTORS
330
66
102
}
330
66
100
DictionaryVariables
280
     0
  1
1:1
  0
DICTIONARYVAR
  5
B5C
102
{ACAD_REACTORS
330
66
102
}
330
66
100
DictionaryVariables
280
     0
  1
STANDARD
  0
DICTIONARYVAR
  5
89
102
{ACAD_REACTORS
330
66
102
}
330
66
100
DictionaryVariables
280
     0
  1
STANDARD
  0
DICTIONARYVAR
  5
66F55
102
{ACAD_REACTORS
330
66
102
}
330
66
100
DictionaryVariables
280
     0
  1
Imperial24
  0
DICTIONARYVAR
  5
66F56
102
{ACAD_REACTORS
330
66
102
}
330
66
100
DictionaryVariables
280
     0
  1
Imperial24
  0
DICTIONARYVAR
  5
67
102
{ACAD_REACTORS
330
66
102
}
330
66
100
DictionaryVariables
280
     0
  1
2
  0
DICTIONARYVAR
  5
6B
102
{ACAD_REACTORS
330
66
102
}
330
66
100
DictionaryVariables
280
     0
  1
1
  0
DICTIONARYVAR
  5
9D9A7
102
{ACAD_REACTORS
330
66
102
}
330
66
100
DictionaryVariables
280
     0
  1
BYLAYER
  0
DICTIONARYVAR
  5
9D9A6
102
{ACAD_REACTORS
330
66
102
}
330
66
100
DictionaryVariables
280
     0
  1
ByLayer
  0
DICTIONARYVAR
  5
25751
102
{ACAD_REACTORS
330
66
102
}
330
66
100
DictionaryVariables
280
     0
  1
1
  0
DICTIONARYVAR
  5
25752
102
{ACAD_REACTORS
330
66
102
}
330
66
100
DictionaryVariables
280
     0
  1
15
  0
DICTIONARYVAR
  5
F79
102
{ACAD_REACTORS
330
66
102
}
330
66
100
DictionaryVariables
280
     0
  1
0
  0
DICTIONARYVAR
  5
F78
102
{ACAD_REACTORS
330
66
102
}
330
66
100
DictionaryVariables
280
     0
  1
0
  0
DICTIONARY
  5
A21DF
330
5C440
100
AcDbDictionary
280
     1
281
     1
  3
ACAD_XREC_ROUNDTRIP
360
AE7F4
  0
DICTIONARY
  5
66EB6
330
22
100
AcDbDictionary
280
     1
281
     1
  0
XRECORD
  5
A15E7
102
{ACAD_REACTORS
330
A15E6
102
}
330
A15E6
100
AcDbXrecord
280
     1
 70
     2
 71
     3
 72
     0
  0
DICTIONARY
  5
A21DD
330
5C43E
100
AcDbDictionary
280
     1
281
     1
  3
ACAD_XREC_ROUNDTRIP
360
AE7F3
  0
DICTIONARY
  5
B4E
330
87
100
AcDbDictionary
280
     1
281
     1
  3
ACAD_ROUNDTRIP_2008_TABLESTYLE_CELLSTYLEMAP
360
AE7F2
  0
XRECORD
  5
9C879
102
{ACAD_REACTORS
330
5C6BF
102
}
330
5C6BF
100
AcDbXrecord
280
     1
1000
AIA Version 3
  0
BINRECORD
  5
5C6C0
102
{ACAD_REACTORS
330
5C6BF
102
}
330
5C6BF
100
AcAecBinRecord
 90
        0
 91
    19403
 70
     0
310
0100FFFEFF0D4100490041002000560065007200730069006F006E00200033000500FFFF01001C004163416563556B4C6179657244657363726970746976654669656C64FFFEFF154400690073006300690070006C0069006E0065002000440065007300690067006E00610074006F0072000102000000007B333637354541
310
46100100002100000070BA406CD0EA76040B00FFFEFF001500FFFEFF01520002000000FFFEFF085200650073006F0075007200630065000700FFFEFF01410002000000FFFEFF165200650073006F00750072006300650020004100720063006800690074006500630074007500720061006C00000000000000FFFEFF014D00
310
02000000FFFEFF135200650073006F00750072006300650020004D0065006300680061006E006900630061006C00000000000000FFFEFF014B0002000000FFFEFF175200650073006F007500720063006500200028005500730065007200200044006500660069006E00650064002900000000000000FFFEFF014A00020000
310
00FFFEFF175200650073006F007500720063006500200028005500730065007200200044006500660069006E00650064002900000000000000FFFEFF01450002000000FFFEFF135200650073006F007500720063006500200045006C0065006300740072006900630061006C00000000000000FFFEFF01430002000000FFFE
310
FF0E5200650073006F007500720063006500200043006900760069006C00000000000000FFFEFF01530002000000FFFEFF135200650073006F00750072006300650020005300740072007500630074007500720061006C0000000000000000000000FFFEFF01410002000000FFFEFF0D410072006300680069007400650063
310
0074007500720061006C000A00FFFEFF01500002000000FFFEFF144100720063006800690074006500630074007500720061006C00200050006100760069006E006700000000000000FFFEFF014B0002000000FFFEFF1C4100720063006800690074006500630074007500720061006C002000280055007300650072002000
310
44006500660069006E00650064002900000000000000FFFEFF014A0002000000FFFEFF1C4100720063006800690074006500630074007500720061006C00200028005500730065007200200044006500660069006E00650064002900000000000000FFFEFF01490002000000FFFEFF16410072006300680069007400650063
310
0074007500720061006C00200049006E0074006500720069006F007200000000000000FFFEFF01470002000000FFFEFF164100720063006800690074006500630074007500720061006C00200047007200610070006800690063007300000000000000FFFEFF01460002000000FFFEFF164100720063006800690074006500
310
630074007500720061006C002000460069006E0069007300680065007300000000000000FFFEFF01450002000000FFFEFF164100720063006800690074006500630074007500720061006C00200045006C0065006D0065006E0074007300000000000000FFFEFF01440002000000FFFEFF1841007200630068006900740065
310
00630074007500720061006C002000440065006D006F006C006900740069006F006E00000000000000FFFEFF01540002000000FFFEFF1C4100720063006800690074006500630074007500720061006C0020005400720061006E00730070006F00720074006100740069006F006E00000000000000FFFEFF01530002000000
310
FFFEFF124100720063006800690074006500630074007500720061006C002000530069007400650000000000000001000000FFFEFF01510002000000FFFEFF09450071007500690070006D0065006E0074001100FFFEFF01410002000000FFFEFF124100740068006C0065007400690063002000450071007500690070006D
310
0065006E007400000000000000FFFEFF01520002000000FFFEFF10520065007400610069006C002000450071007500690070006D0065006E007400000000000000FFFEFF01500002000000FFFEFF155000610072006B0069006E00670020004C006F0074002000450071007500690070006D0065006E007400000000000000
310
FFFEFF014D0002000000FFFEFF154D00610069006E00740065006E0061006E00630065002000450071007500690070006D0065006E007400000000000000FFFEFF014C0002000000FFFEFF144C00610062006F007200610074006F00720079002000450071007500690070006D0065006E007400000000000000FFFEFF014B
310
0002000000FFFEFF18450071007500690070006D0065006E007400200028005500730065007200200044006500660069006E00650064002900000000000000FFFEFF014A0002000000FFFEFF18450071007500690070006D0065006E007400200028005500730065007200200044006500660069006E006500640029000000
310
00000000FFFEFF01480002000000FFFEFF1248006F00730070006900740061006C002000450071007500690070006D0065006E007400000000000000FFFEFF01590002000000FFFEFF12530065006300750072006900740079002000450071007500690070006D0065006E007400000000000000FFFEFF01460002000000FF
310
FEFF1646006F006F006400200053006500720076006900630065002000450071007500690070006D0065006E007400000000000000FFFEFF01450002000000FFFEFF1545006400750063006100740069006F006E0061006C002000450071007500690070006D0065006E007400000000000000FFFEFF01560002000000FFFE
310
FF1C56006900640065006F002F00500068006F0074006F0067007200610070006800690063002000450071007500690070006D0065006E007400000000000000FFFEFF01440002000000FFFEFF1344006500740065006E00740069006F006E002000450071007500690070006D0065006E007400000000000000FFFEFF0143
310
0002000000FFFEFF16440072007900200043006C00650061006E0069006E0067002000450071007500690070006D0065006E007400000000000000FFFEFF01540002000000FFFEFF145400680065006100740072006900630061006C002000450071007500690070006D0065006E007400000000000000FFFEFF0142000200
310
0000FFFEFF0E420061006E006B002000450071007500690070006D0065006E007400000000000000FFFEFF01530002000000FFFEFF0E53006900740065002000450071007500690070006D0065006E00740000000000000000000000FFFEFF01500002000000FFFEFF0850006C0075006D00620069006E0067000600FFFEFF
310
01510002000000FFFEFF1250006C0075006D00620069006E0067002000450071007500690070006D0065006E007400000000000000FFFEFF01500002000000FFFEFF0F50006C0075006D00620069006E006700200050006900700069006E006700000000000000FFFEFF014B0002000000FFFEFF1750006C0075006D006200
310
69006E006700200028005500730065007200200044006500660069006E00650064002900000000000000FFFEFF014A0002000000FFFEFF1750006C0075006D00620069006E006700200028005500730065007200200044006500660069006E00650064002900000000000000FFFEFF01440002000000FFFEFF1350006C0075
310
006D00620069006E0067002000440065006D006F006C006900740069006F006E00000000000000FFFEFF01530002000000FFFEFF0D50006C0075006D00620069006E0067002000530069007400650000000000000000000000FFFEFF014F0002000000FFFEFF0A4F007000650072006100740069006F006E0073000200FFFE
310
FF014B0002000000FFFEFF194F007000650072006100740069006F006E007300200028005500730065007200200044006500660069006E00650064002900000000000000FFFEFF014A0002000000FFFEFF194F007000650072006100740069006F006E007300200028005500730065007200200044006500660069006E0065
310
006400290000000000000000000000FFFEFF014D0002000000FFFEFF0A4D0065006300680061006E006900630061006C000700FFFEFF01500002000000FFFEFF114D0065006300680061006E006900630061006C00200050006900700069006E006700000000000000FFFEFF014B0002000000FFFEFF194D00650063006800
310
61006E006900630061006C00200028005500730065007200200044006500660069006E00650064002900000000000000FFFEFF014A0002000000FFFEFF194D0065006300680061006E006900630061006C00200028005500730065007200200044006500660069006E00650064002900000000000000FFFEFF014900020000
310
00FFFEFF1A4D0065006300680061006E006900630061006C00200049006E0073007400720075006D0065006E0074006100740069006F006E00000000000000FFFEFF01480002000000FFFEFF0F4D0065006300680061006E006900630061006C0020004800560041004300000000000000FFFEFF01440002000000FFFEFF15
310
4D0065006300680061006E006900630061006C002000440065006D006F006C006900740069006F006E00000000000000FFFEFF01530002000000FFFEFF0F4D0065006300680061006E006900630061006C002000530069007400650000000000000000000000FFFEFF014C0002000000FFFEFF094C0061006E006400730063
310
006100700065000500FFFEFF01500002000000FFFEFF124C0061006E00640073006300610070006500200050006C0061006E00740069006E006700000000000000FFFEFF014B0002000000FFFEFF184C0061006E00640073006300610070006500200028005500730065007200200044006500660069006E00650064002900
310
000000000000FFFEFF014A0002000000FFFEFF184C0061006E00640073006300610070006500200028005500730065007200200044006500660069006E00650064002900000000000000FFFEFF01490002000000FFFEFF144C0061006E006400730063006100700065002000490072007200690067006100740069006F006E
310
00000000000000FFFEFF01440002000000FFFEFF144C0061006E006400730063006100700065002000440065006D006F006C006900740069006F006E0000000000000000000000FFFEFF015A0002000000FFFEFF1A43006F006E00740072006100630074006F00720020002F002000530068006F0070002000440072006100
310
770069006E00670073000200FFFEFF014B0002000000FFFEFF2943006F006E00740072006100630074006F00720020002F002000530068006F0070002000440072006100770069006E0067007300200028005500730065007200200044006500660069006E00650064002900000000000000FFFEFF014A0002000000FFFEFF
310
2943006F006E00740072006100630074006F00720020002F002000530068006F0070002000440072006100770069006E0067007300200028005500730065007200200044006500660069006E0065006400290000000000000000000000FFFEFF01490002000000FFFEFF0949006E0074006500720069006F00720073000600
310
FFFEFF014E0002000000FFFEFF0F49006E0074006500720069006F0072002000440065007300690067006E00000000000000FFFEFF014B0002000000FFFEFF1849006E0074006500720069006F0072007300200028005500730065007200200044006500660069006E00650064002900000000000000FFFEFF014A00020000
310
00FFFEFF1849006E0074006500720069006F0072007300200028005500730065007200200044006500660069006E00650064002900000000000000FFFEFF01470002000000FFFEFF1249006E0074006500720069006F0072007300200047007200610070006800690063007300000000000000FFFEFF01460002000000FFFE
310
FF1149006E0074006500720069006F0072002000460069006E0069007300680065007300000000000000FFFEFF01440002000000FFFEFF1349006E0074006500720069006F0072002000440065006D006F006C006900740069006F006E0000000000000000000000FFFEFF01480002000000FFFEFF13480061007A00610072
310
0064006F007500730020004D006100740065007200690061006C0073000700FFFEFF01410002000000FFFEFF084100730062006500730074006F007300000000000000FFFEFF01520002000000FFFEFF0C5200650066007200690067006500720061006E0074007300000000000000FFFEFF01500002000000FFFEFF035000
310
43004200000000000000FFFEFF014C0002000000FFFEFF044C00650061006400000000000000FFFEFF014B0002000000FFFEFF22480061007A006100720064006F007500730020004D006100740065007200690061006C007300200028005500730065007200200044006500660069006E00650064002900000000000000FF
310
FEFF014A0002000000FFFEFF22480061007A006100720064006F007500730020004D006100740065007200690061006C007300200028005500730065007200200044006500660069006E00650064002900000000000000FFFEFF01430002000000FFFEFF094300680065006D006900630061006C0073000000000000000000
310
0000FFFEFF01580002000000FFFEFF114F00740068006500720020004400690073006300690070006C0069006E00650073000200FFFEFF014B0002000000FFFEFF204F00740068006500720020004400690073006300690070006C0069006E0065007300200028005500730065007200200044006500660069006E00650064
310
002900000000000000FFFEFF014A0002000000FFFEFF204F00740068006500720020004400690073006300690070006C0069006E0065007300200028005500730065007200200044006500660069006E0065006400290000000000000000000000FFFEFF01470002000000FFFEFF07470065006E006500720061006C000500
310
FFFEFF01520002000000FFFEFF10470065006E006500720061006C0020005200650073006F007500720063006500000000000000FFFEFF014B0002000000FFFEFF16470065006E006500720061006C00200028005500730065007200200044006500660069006E00650064002900000000000000FFFEFF014A0002000000FF
310
FEFF16470065006E006500720061006C00200028005500730065007200200044006500660069006E00650064002900000000000000FFFEFF01490002000000FFFEFF13470065006E006500720061006C00200049006E0066006F0072006D006100740069006F006E00000000000000FFFEFF01430002000000FFFEFF134700
310
65006E006500720061006C00200043006F006E0074007200610063007400750061006C0000000000000000000000FFFEFF01460002000000FFFEFF0F46006900720065002000500072006F00740065006300740069006F006E000400FFFEFF01410002000000FFFEFF18460069007200650020004400650074006500630074
310
0069006F006E00200061006E006400200041006C00610072006D00000000000000FFFEFF014B0002000000FFFEFF134600690072006500200028005500730065007200200044006500660069006E00650064002900000000000000FFFEFF014A0002000000FFFEFF1346006900720065002000280055007300650072002000
310
44006500660069006E00650064002900000000000000FFFEFF01530002000000FFFEFF10460069007200650020005300750070007000720065007300730069006F006E0000000000000000000000FFFEFF01570002000000FFFEFF0B43006900760069006C00200057006F0072006B0073000200FFFEFF014B0002000000FF
310
FEFF1A43006900760069006C00200057006F0072006B007300200028005500730065007200200044006500660069006E00650064002900000000000000FFFEFF014A0002000000FFFEFF1A43006900760069006C00200057006F0072006B007300200028005500730065007200200044006500660069006E00650064002900
310
00000000000000000000FFFEFF01450002000000FFFEFF0A45006C0065006300740072006900630061006C000900FFFEFF01500002000000FFFEFF1045006C0065006300740072006900630061006C00200050006F00770065007200000000000000FFFEFF014C0002000000FFFEFF1345006C006500630074007200690063
310
0061006C0020004C00690067006800740069006E006700000000000000FFFEFF014B0002000000FFFEFF1945006C0065006300740072006900630061006C00200028005500730065007200200044006500660069006E00650064002900000000000000FFFEFF014A0002000000FFFEFF1945006C0065006300740072006900
310
630061006C00200028005500730065007200200044006500660069006E00650064002900000000000000FFFEFF01490002000000FFFEFF1A45006C0065006300740072006900630061006C00200049006E0073007400720075006D0065006E0074006100740069006F006E00000000000000FFFEFF01590002000000FFFEFF
310
1C45006C0065006300740072006900630061006C00200041007500780069006C0069006100720079002000530079007300740065006D007300000000000000FFFEFF01440002000000FFFEFF1545006C0065006300740072006900630061006C002000440065006D006F006C006900740069006F006E00000000000000FFFE
310
FF01540002000000FFFEFF1D45006C0065006300740072006900630061006C002000540065006C00650063006F006D006D0075006E00690063006100740069006F006E007300000000000000FFFEFF01530002000000FFFEFF0F45006C0065006300740072006900630061006C002000530069007400650000000000000000
310
000000FFFEFF01560002000000FFFEFF1053007500720076006500790020002F0020004D0061007000700069006E0067000500FFFEFF01410002000000FFFEFF0D410065007200690061006C002000530075007200760065007900000000000000FFFEFF014B0002000000FFFEFF1F53007500720076006500790020002F00
310
20004D0061007000700069006E006700200028005500730065007200200044006500660069006E00650064002900000000000000FFFEFF014A0002000000FFFEFF1F53007500720076006500790020002F0020004D0061007000700069006E006700200028005500730065007200200044006500660069006E006500640029
310
00000000000000FFFEFF01490002000000FFFEFF0E4400690067006900740061006C002000530075007200760065007900000000000000FFFEFF01460002000000FFFEFF0C4600690065006C006400200053007500720076006500790000000000000000000000FFFEFF01440002000000FFFEFF07500072006F0063006500
310
730073000E00FFFEFF01410002000000FFFEFF0C500072006F00630065007300730020004100690072007300000000000000FFFEFF01520002000000FFFEFF19500072006F006300650073007300200044007200610069006E0073002000260020005200650063006C00610069006D007300000000000000FFFEFF01510002
310
000000FFFEFF11500072006F0063006500730073002000450071007500690070006D0065006E007400000000000000FFFEFF01500002000000FFFEFF0E500072006F006300650073007300200050006900700069006E006700000000000000FFFEFF014F0002000000FFFEFF0B500072006F00630065007300730020004F00
310
69006C00000000000000FFFEFF01470002000000FFFEFF0D500072006F006300650073007300200047006100730065007300000000000000FFFEFF01580002000000FFFEFF0F500072006F00630065007300730020004500780068006100750073007400000000000000FFFEFF01570002000000FFFEFF0E500072006F0063
310
006500730073002000570061007400650072007300000000000000FFFEFF01450002000000FFFEFF12500072006F006300650073007300200045006C0065006300740072006900630061006C00000000000000FFFEFF01560002000000FFFEFF0E500072006F0063006500730073002000560061006300750075006D000000
310
00000000FFFEFF01440002000000FFFEFF12500072006F0063006500730073002000440065006D006F006C006900740069006F006E00000000000000FFFEFF01430002000000FFFEFF11500072006F00630065007300730020004300680065006D006900630061006C007300000000000000FFFEFF01540002000000FFFEFF
310
18500072006F006300650073007300200045006E0074007200610069006E0065006400200053006F006C00690064007300000000000000FFFEFF01530002000000FFFEFF0C500072006F0063006500730073002000530069007400650000000000000000000000FFFEFF01540002000000FFFEFF12540065006C0065006300
310
6F006D006D0075006E00690063006100740069006F006E0073000900FFFEFF01410002000000FFFEFF0E41007500640069006F0020002F002000560069007300750061006C00000000000000FFFEFF014E0002000000FFFEFF0D440061007400610020004E006500740077006F0072006B007300000000000000FFFEFF014D
310
0002000000FFFEFF0A4D006F006E00690074006F00720069006E006700000000000000FFFEFF014B0002000000FFFEFF21540065006C00650063006F006D006D0075006E00690063006100740069006F006E007300200028005500730065007200200044006500660069006E00650064002900000000000000FFFEFF014A00
310
02000000FFFEFF21540065006C00650063006F006D006D0075006E00690063006100740069006F006E007300200028005500730065007200200044006500660069006E00650064002900000000000000FFFEFF01490002000000FFFEFF0849006E0074006500720063006F006D00000000000000FFFEFF01590002000000FF
310
FEFF0853006500630075007200690074007900000000000000FFFEFF01430002000000FFFEFF1143006C006F0063006B00200061006E0064002000500072006F006700720061006D00000000000000FFFEFF01540002000000FFFEFF09540065006C006500700068006F006E00650000000000000000000000FFFEFF014300
310
02000000FFFEFF0543006900760069006C000900FFFEFF01500002000000FFFEFF0C43006900760069006C00200050006100760069006E006700000000000000FFFEFF014B0002000000FFFEFF1443006900760069006C00200028005500730065007200200044006500660069006E00650064002900000000000000FFFEFF
310
014A0002000000FFFEFF1443006900760069006C00200028005500730065007200200044006500660069006E00650064002900000000000000FFFEFF01490002000000FFFEFF1243006900760069006C00200049006D00700072006F00760065006D0065006E0074007300000000000000FFFEFF01470002000000FFFEFF0D
310
43006900760069006C002000470072006100640069006E006700000000000000FFFEFF01550002000000FFFEFF0F43006900760069006C0020005500740069006C0069007400690065007300000000000000FFFEFF01440002000000FFFEFF1043006900760069006C002000440065006D006F006C006900740069006F006E
310
00000000000000FFFEFF01540002000000FFFEFF1443006900760069006C0020005400720061006E00730070006F00720074006100740069006F006E00000000000000FFFEFF01530002000000FFFEFF0A43006900760069006C002000530069007400650000000000000000000000FFFEFF01530002000000FFFEFF0A5300
310
740072007500630074007500720061006C000600FFFEFF014B0002000000FFFEFF195300740072007500630074007500720061006C00200028005500730065007200200044006500660069006E00650064002900000000000000FFFEFF014A0002000000FFFEFF195300740072007500630074007500720061006C00200028
310
005500730065007200200044006500660069006E00650064002900000000000000FFFEFF01460002000000FFFEFF125300740072007500630074007500720061006C0020004600720061006D0069006E006700000000000000FFFEFF01440002000000FFFEFF155300740072007500630074007500720061006C0020004400
310
65006D006F006C006900740069006F006E00000000000000FFFEFF01420002000000FFFEFF175300740072007500630074007500720061006C002000530075006200730074007200750063007400750072006500000000000000FFFEFF01530002000000FFFEFF0F5300740072007500630074007500720061006C00200053
310
0069007400650000000000000000000000FFFEFF01420002000000FFFEFF0C470065006F0074006500630068006E006900630061006C000200FFFEFF014B0002000000FFFEFF1B470065006F0074006500630068006E006900630061006C00200028005500730065007200200044006500660069006E006500640029000000
310
00000000FFFEFF014A0002000000FFFEFF1B470065006F0074006500630068006E006900630061006C00200028005500730065007200200044006500660069006E00650064002900000000000000000000000180FFFEFF054D0061006A006F0072000300000000000000000000000000000000000000000000000000000000
310
000000FFFEFF002300FFFEFF052D004400650074006C0002000000FFFEFF06440065007400610069006C00000000000000FFFEFF052D0043006C006E00670002000000FFFEFF074300650069006C0069006E006700000000000000FFFEFF052D0052006F006F00660002000000FFFEFF0452006F006F006600000000000000
310
FFFEFF052D00470072006900640002000000FFFEFF0A470072006900640020006C0069006E0065007300000000000000FFFEFF052D00460069007200650002000000FFFEFF1446006900720065002000700072006F00740065006300740069006F006E00200070006C0061006E00000000000000FFFEFF052D00500072006F
310
00740002000000FFFEFF1646006900720065002000700072006F00740065006300740069006F006E002000730079007300740065006D00000000000000FFFEFF052D0043006F006C00730002000000FFFEFF0743006F006C0075006D006E007300000000000000FFFEFF052D004300740072006C0002000000FFFEFF0E4300
310
6F006E00740072006F006C00200050006F0069006E0074007300000000000000FFFEFF052D004500710070006D0002000000FFFEFF09450071007500690070006D0065006E007400000000000000FFFEFF052D00570061006C006C0002000000FFFEFF05570061006C006C007300000000000000FFFEFF052D00500072006F
310
00700002000000FFFEFF08500072006F0070006500720074007900000000000000FFFEFF052D00530065006300740002000000FFFEFF07530065006300740069006F006E00000000000000FFFEFF052D0050006F006C00790002000000FFFEFF0850006F006C00790067006F006E007300000000000000FFFEFF052D004C00
310
69007400650002000000FFFEFF114C00690067006800740069006E006700200066006900780074007500720065007300000000000000FFFEFF052D00410063006300730002000000FFFEFF0B410063006300650073007300200070006C0061006E00000000000000FFFEFF052D00480056004100430002000000FFFEFF0448
310
00560041004300000000000000FFFEFF052D0045006C006500630002000000FFFEFF0A45006C0065006300740072006900630061006C00000000000000FFFEFF052D0054006F0070006F0002000000FFFEFF0A54006F0070006F00670072006100700068007900000000000000FFFEFF052D0043006F006400650002000000
310
FFFEFF1443006F0064006500200063006F006D0070006C00690061006E0063006500200070006C0061006E00000000000000FFFEFF052D0047006C0061007A0002000000FFFEFF0747006C0061007A0069006E006700000000000000FFFEFF052D00540069006E006E0002000000FFFEFF1E54007200690061006E00670075
310
006C00610074006500640020006900720072006500670075006C006100720020006E006500740077006F0072006B00000000000000FFFEFF052D0050006C0061006E0002000000FFFEFF154B0065007900200070006C0061006E002000280066006C006F006F007200200070006C0061006E002900000000000000FFFEFF05
310
2D0046006C006F00720002000000FFFEFF0546006C006F006F007200000000000000FFFEFF052D004600750072006E0002000000FFFEFF0B4600750072006E0069007300680069006E0067007300000000000000FFFEFF052D004200650061006D0002000000FFFEFF054200650061006D007300000000000000FFFEFF052D
310
0044006F006F00720002000000FFFEFF0544006F006F0072007300000000000000FFFEFF052D0041006E006E006F0002000000FFFEFF0A41006E006E006F0074006100740069006F006E00000000000000FFFEFF052D00450076006100630002000000FFFEFF0F450076006100630075006100740069006F006E0020007000
310
6C0061006E00000000000000FFFEFF052D00530069007400650002000000FFFEFF095300690074006500200070006C0061006E00000000000000FFFEFF052D0043006F006E00760002000000FFFEFF1143006F006E0076006500790069006E0067002000730079007300740065006D007300000000000000FFFEFF052D0053
310
006C006100620002000000FFFEFF0553006C00610062007300000000000000FFFEFF052D0043006F006D006D0002000000FFFEFF12540065006C00650063006F006D006D0075006E00690063006100740069006F006E007300000000000000FFFEFF052D005300740072006D0002000000FFFEFF0844007200610069006E00
310
610067006500000000000000FFFEFF052D00410072006500610002000000FFFEFF044100720065006100000000000000FFFEFF052D0045006C006500760002000000FFFEFF0945006C00650076006100740069006F006E000000000000000180FFFEFF074D0069006E006F00720020003100040000000000000000F00E7704
310
00000000000000000000000000000000F00000FFFEFF006A00FFFEFF052D004F00700065006E0002000000FFFEFF084F00700065006E0069006E0067007300000000000000FFFEFF052D005300690067006E0002000000FFFEFF055300690067006E007300000000000000FFFEFF052D0043006C006E00670002000000FFFE
310
FF074300650069006C0069006E006700000000000000FFFEFF052D00570069006400650002000000FFFEFF19570069006400650020007700650069006700680074002000670072006100700068006900630020006C0069006E0065007300000000000000FFFEFF052D00530044004600460002000000FFFEFF105300750070
310
0070006C0079002000640069006600660075007300650072007300000000000000FFFEFF052D004D0063007500740002000000FFFEFF164D00610069006E00200063007500740020006C0069006E006500200065006C0065006D0065006E0074007300000000000000FFFEFF052D00470072006900640002000000FFFEFF04
310
4700720069006400000000000000FFFEFF052D00460069007200650002000000FFFEFF0A46006900720065002000770061006C006C007300000000000000FFFEFF052D00410062006F00760002000000FFFEFF0E45006C0065006D0065006E00740073002000610062006F0076006500000000000000FFFEFF052D00500072
310
006F00660002000000FFFEFF08500072006F00660069006C0065007300000000000000FFFEFF052D00530079006D00620002000000FFFEFF07530079006D0062006F006C007300000000000000FFFEFF052D00480065007600790002000000FFFEFF1A48006500610076007900200077006500690067006800740020006700
310
72006100700068006900630020006C0069006E0065007300000000000000FFFEFF052D00430061007600690002000000FFFEFF06430061007600690074007900000000000000FFFEFF052D005500740069006C0002000000FFFEFF095500740069006C0069007400690065007300000000000000FFFEFF052D004E006F0074
310
00650002000000FFFEFF054E006F00740065007300000000000000FFFEFF052D00530065006100740002000000FFFEFF07530065006100740069006E006700000000000000FFFEFF052D00460072006500650002000000FFFEFF0C46007200650065007300740061006E00640069006E006700000000000000FFFEFF052D00
310
460061007300630002000000FFFEFF074600610073006300690061007300000000000000FFFEFF052D00500072006800740002000000FFFEFF0E5000610072007400690061006C002000680065006900670068007400000000000000FFFEFF052D004D00610072006B0002000000FFFEFF1D4D00610072006B006500720073
310
002C00200062007200650061006B0020006D00610072006B0073002C0020006C00650061006400650072007300000000000000FFFEFF052D00530070006300650002000000FFFEFF0553007000610063006500000000000000FFFEFF052D004900640065006E0002000000FFFEFF134900640065006E007400690066006900
310
63006100740069006F006E0020005400610067007300000000000000FFFEFF052D0057006B007300660002000000FFFEFF1E530079007300740065006D00200077006F0072006B0020007300750072006600610063006500200063006F006D0070006F006E0065006E0074007300000000000000FFFEFF052D005200610069
310
00730002000000FFFEFF06520061006900730065006400000000000000FFFEFF052D004A0061006D00620002000000FFFEFF1544006F006F007200200061006E0064002000770069006E0064006F00770020006A0061006D0062007300000000000000FFFEFF052D00450076007400720002000000FFFEFF1B45006C006500
310
7600610074006F00720020006300610072007300200061006E0064002000650071007500690070006D0065006E007400000000000000FFFEFF052D00540065007800740002000000FFFEFF045400650078007400000000000000FFFEFF052D004500710070006D0002000000FFFEFF09450071007500690070006D0065006E
310
007400000000000000FFFEFF052D00570061006C006C0002000000FFFEFF05570061006C006C007300000000000000FFFEFF052D00460069006C00650002000000FFFEFF0D460069006C006500200063006100620069006E00650074007300000000000000FFFEFF052D004100730073006D0002000000FFFEFF0A41007300
310
730065006D0062006C00690065007300000000000000FFFEFF052D0046006E007300680002000000FFFEFF08460069006E0069007300680065007300000000000000FFFEFF052D004D00610073006B0002000000FFFEFF1241004400540020004D00610073006B0069006E00670020004F0062006A00650063007400000000
310
000000FFFEFF052D005400690074006C0002000000FFFEFF18440072006100770069006E00670020006F0072002000640065007400610069006C0020007400690074006C0065007300000000000000FFFEFF052D004C0069007400650002000000FFFEFF084C00690067006800740069006E006700000000000000FFFEFF05
310
2D00410063006300730002000000FFFEFF06410063006300650073007300000000000000FFFEFF052D004C00610062006C0002000000FFFEFF064C006100620065006C007300000000000000FFFEFF052D00520065006600720002000000FFFEFF195200650066006500720065006E00630065002C00200065007800740065
310
0072006E0061006C002000660069006C0065007300000000000000FFFEFF052D004D00650064006D0002000000FFFEFF1B4D0065006400690075006D0020007700650069006700680074002000670072006100700068006900630020006C0069006E0065007300000000000000FFFEFF052D00530074007200730002000000
310
FFFEFF215300740061006900720020007400720065006100640073002C00200065007300630061006C00610074006F00720073002C0020006C00610064006400650072007300000000000000FFFEFF052D00430075007200740002000000FFFEFF0C4300750072007400610069006E002000570061006C006C000000000000
310
00FFFEFF052D00440065006D006F0002000000FFFEFF0A440065006D006F006C006900740069006F006E00000000000000FFFEFF052D00560069006500770002000000FFFEFF13560069006500770070006F0072007400200044006500660069006E006900740069006F006E00000000000000FFFEFF052D00440069006D00
310
730002000000FFFEFF0A440069006D0065006E00730069006F006E007300000000000000FFFEFF052D0053006C006300650002000000FFFEFF0653006C006900630065007300000000000000FFFEFF052D0043006F006E006E0002000000FFFEFF0B43006F006E006E0065006300740069006F006E007300000000000000FF
310
FEFF052D0042006C006F00770002000000FFFEFF0E45006C0065006D0065006E00740073002000620065006C006F007700000000000000FFFEFF052D00460069006E00650002000000FFFEFF19460069006E00650020007700650069006700680074002000670072006100700068006900630020006C0069006E0065007300
310
000000000000FFFEFF052D00530075007300700002000000FFFEFF12530075007300700065006E00640065006400200065006C0065006D0065006E0074007300000000000000FFFEFF052D004C00650076006C0002000000FFFEFF274C006500760065006C0020006300680061006E006700650073002C002000720061006D
310
00700073002C00200070006900740073002C002000640065007000720065007300730069006F006E007300000000000000FFFEFF052D00460069007800640002000000FFFEFF0F460069007800650064002000650071007500690070006D0065006E007400000000000000FFFEFF052D004F0063006300700002000000FFFE
310
FF1A4F00630063007500700061006E00740020006F007200200065006D0070006C006F0079006500650020006E0061006D0065007300000000000000FFFEFF052D00480069006400650002000000FFFEFF0E480069006400640065006E0020006F0062006A006500630074007300000000000000FFFEFF052D004100640074
310
00760002000000FFFEFF1141006400640069007400690076006500200065006C0065006D0065006E0074007300000000000000FFFEFF052D00520064006D00650002000000FFFEFF1B52006500610064002D006D00650020006C006100790065007200200028006E006F007400200070006C006F0074007400650064002900
310
000000000000FFFEFF052D005300630072006E0002000000FFFEFF14530063007200650065006E006500640020004200610063006B00670072006F0075006E0064007300000000000000FFFEFF052D00460069007800740002000000FFFEFF1170006C0075006D00620069006E006700200066006900780074007500720065
310
007300000000000000FFFEFF052D004C00650067006E0002000000FFFEFF144C006500670065006E00640073002C002000530079006D0062006F006C0020006B00650079007300000000000000FFFEFF052D0043006E007400720002000000FFFEFF0A430065006E007400650072006C0069006E006500000000000000FFFE
310
FF052D00420064007200790002000000FFFEFF0842006F0075006E006400610072007900000000000000FFFEFF052D0050006F007700720002000000FFFEFF0550006F00770065007200000000000000FFFEFF052D00470072007000730002000000FFFEFF06470072006F00750070007300000000000000FFFEFF052D004B
310
00650079006E0002000000FFFEFF084B00650079006E006F00740065007300000000000000FFFEFF052D00420072006300650002000000FFFEFF06420072006100630065007300000000000000FFFEFF052D005300700063006C0002000000FFFEFF0B5300700065006300690061006C007400690065007300000000000000
310
FFFEFF052D004F0074006C006E0002000000FFFEFF074F00750074006C0069006E006500000000000000FFFEFF052D005400700074006E0002000000FFFEFF1154006F0069006C0065007400200070006100720074006900740069006F006E007300000000000000FFFEFF052D005200650066006C0002000000FFFEFF0E52
310
00650066006C0065006300740065006400200050006C0061006E00000000000000FFFEFF052D005400680069006E0002000000FFFEFF195400680069006E0020007700650069006700680074002000670072006100700068006900630020006C0069006E0065007300000000000000FFFEFF052D005000650070006C000200
310
0000FFFEFF06500065006F0070006C006500000000000000FFFEFF052D004F0076006800640002000000FFFEFF084F007600650072006800650061006400000000000000FFFEFF052D004800720061006C0002000000FFFEFF16480061006E0064007200610069006C0073002C002000670075006100720064002000720061
310
0069006C007300000000000000FFFEFF052D004D0061007400630002000000FFFEFF0B4D00610074006300680020006C0069006E0065007300000000000000FFFEFF052D00520044004600460002000000FFFEFF14520065007400750072006E00200061006900720020006400690066006600750073006500720073000000
310
00000000FFFEFF052D00540074006C00620002000000FFFEFF1642006F007200640065007200200061006E00640020007400690074006C006500200062006C006F0063006B00000000000000FFFEFF052D00530077006300680002000000FFFEFF0853007700690074006300680065007300000000000000FFFEFF052D0041
310
00700070006C0002000000FFFEFF0A4100700070006C00690061006E00630065007300000000000000FFFEFF052D00540065006500730002000000FFFEFF094D00610069006E0020007400650065007300000000000000FFFEFF052D005700640077006B0002000000FFFEFF16410072006300680069007400650063007400
310
7500720061006C00200077006F006F00640077006F0072006B00000000000000FFFEFF052D004C0069006E00650002000000FFFEFF0D44006500660069006E0069006E00670020004C0069006E006500000000000000FFFEFF052D004D0061007300730002000000FFFEFF104D0061007300730069006E006700200045006C
310
0065006D0065006E0074007300000000000000FFFEFF052D005400610062006C0002000000FFFEFF0B440061007400610020007400610062006C0065007300000000000000FFFEFF052D00540068006C00640002000000FFFEFF0A5400680072006500730068006F006C0064007300000000000000FFFEFF052D0053006300
310
6800640002000000FFFEFF095300630068006500640075006C0065007300000000000000FFFEFF052D00460075006C006C0002000000FFFEFF0B460075006C006C002D00680065006900670068007400000000000000FFFEFF052D00480065006100640002000000FFFEFF1744006F006F007200200061006E006400200077
310
0069006E0064006F00770020006800650061006400650072007300000000000000FFFEFF052D004D006F007600650002000000FFFEFF124D006F0076006500610062006C0065002000650071007500690070006D0065006E007400000000000000FFFEFF052D00420072006E00670002000000FFFEFF1A4200650061007200
310
69006E0067007300200026002000640069007300740061006E006300650020006C006100620065006C007300000000000000FFFEFF052D0043006F006D00700002000000FFFEFF1349006E007400650072006E0061006C00200063006F006D0070006F006E0065006E0074007300000000000000FFFEFF052D00530074006F
310
00720002000000FFFEFF19530079007300740065006D002000730074006F007200610067006500200063006F006D0070006F006E0065006E0074007300000000000000FFFEFF052D0050006B006E00670002000000FFFEFF075000610072006B0069006E006700000000000000FFFEFF052D004E00690063006E0002000000
310
FFFEFF0F4E006F007400200069006E00200063006F006E0074007200610063007400000000000000FFFEFF052D00430068006100730002000000FFFEFF0543006800610073006500000000000000FFFEFF052D004E0070006C00740002000000FFFEFF204E006F006E002D0070006C006F007400740069006E006700200067
310
00720061007000680069006300200069006E0066006F0072006D006100740069006F006E00000000000000FFFEFF052D005600680063006C0002000000FFFEFF08560065006800690063006C0065007300000000000000FFFEFF052D00520065007600730002000000FFFEFF095200650076006900730069006F006E007300
310
000000000000FFFEFF052D00500061007400740002000000FFFEFF19540065007800740075007200650020006F00720020006800610074006300680020007000610074007400650072006E007300000000000000FFFEFF052D0053006C006100620002000000FFFEFF0553006C00610062007300000000000000FFFEFF052D
310
0043006F006D006D0002000000FFFEFF1A540065006C006500700068006F006E0065002C00200063006F006D006D0075006E00690063006100740069006F006E0073002000000000000000FFFEFF052D00430061007300650002000000FFFEFF08430061007300650077006F0072006B00000000000000FFFEFF052D005200
310
65007600630002000000FFFEFF0F5200650076006900730069006F006E00200063006C006F00750064007300000000000000FFFEFF052D0050006C006E00740002000000FFFEFF0650006C0061006E0074007300000000000000FFFEFF052D00530075006200740002000000FFFEFF14530075006200740072006100630074
310
00690076006500200065006C0065006D0065006E0074007300000000000000FFFEFF052D0050006E006C00730002000000FFFEFF0D530079007300740065006D002000700061006E0065006C007300000000000000FFFEFF052D00520069007300720002000000FFFEFF0C5300740061006900720020007200690073006500
310
72007300000000000000FFFEFF052D00530069006C006C0002000000FFFEFF0C570069006E0064006F0077002000730069006C006C0073000000000000000180FFFEFF074D0069006E006F0072002000320005000000004164642062656C6F77207468652073656C6563746564206974656DFFFEFF001600FFFEFF052D0041
310
0062006F00760002000000FFFEFF0E45006C0065006D0065006E00740073002000610062006F0076006500000000000000FFFEFF052D004E006F007400650002000000FFFEFF16470065006E006500720061006C0020005400650078007400200061006E00640020004E006F00740065007300000000000000FFFEFF052D00
310
460061007300630002000000FFFEFF06460061007300630069006100000000000000FFFEFF052D004900640065006E0002000000FFFEFF0A4900640065006E00740069006600690065007200000000000000FFFEFF052D0055006E006900740002000000FFFEFF0455006E0069007400000000000000FFFEFF052D00540069
310
0074006C0002000000FFFEFF065400690074006C0065007300000000000000FFFEFF052D00440069006D00730002000000FFFEFF0A440069006D0065006E00730069006F006E007300000000000000FFFEFF052D0053006C006300650002000000FFFEFF0653006C006900630065007300000000000000FFFEFF052D004700
310
6C0061007A0002000000FFFEFF0747006C0061007A0069006E006700000000000000FFFEFF052D00480069006400650002000000FFFEFF0F480069006400640065006E00200065006C0065006D0065006E0074007300000000000000FFFEFF052D00420064007200790002000000FFFEFF0D4500640067006500200062006F
310
0075006E006400610072007900000000000000FFFEFF052D00470072007000730002000000FFFEFF06470072006F00750070007300000000000000FFFEFF052D004F0074006C006E0002000000FFFEFF074F00750074006C0069006E006500000000000000FFFEFF052D005200650066006C0002000000FFFEFF0F52006500
310
66006C0065006300740065006400200050006C0061006E007300000000000000FFFEFF052D005400680069006E0002000000FFFEFF0E4D0069006E006F00720020006C0069006E00650077006F0072006B00000000000000FFFEFF052D004C0069006E00650002000000FFFEFF10470065006E006500720061006C0020006C
310
0069006E00650077006F0072006B00000000000000FFFEFF052D004E0070006C00740002000000FFFEFF154E006F006E002D0070006C006F007400740069006E006700200065006C0065006D0065006E0074007300000000000000FFFEFF052D00530066006900740002000000FFFEFF0653006F0066006600690074000000
310
00000000FFFEFF052D00500061007400740002000000FFFEFF0E4800610074006300680020007000610074007400650072006E007300000000000000FFFEFF052D005300630061006C0002000000FFFEFF10470072006100700068006900630061006C0020005300630061006C0065007300000000000000FFFEFF052D0052
310
0069007300720002000000FFFEFF06520069007300650072007300000000000000FFFEFF052D00530069006C006C0002000000FFFEFF05530069006C006C0073000000000000000180FFFEFF06530074006100740075007300060000000000000000A434770470040000B10000005073770400000000050000FFFEFF000F00
310
FFFEFF022D00540002000000FFFEFF0E540065006D0070006F007200610072007900200077006F0072006B00000000000000FFFEFF022D00450002000000FFFEFF124500780069007300740069006E006700200074006F002000720065006D00610069006E00000000000000FFFEFF022D00380002000000FFFEFF07500068
310
0061007300650020003800000000000000FFFEFF022D00390002000000FFFEFF075000680061007300650020003900000000000000FFFEFF022D00360002000000FFFEFF075000680061007300650020003600000000000000FFFEFF022D00370002000000FFFEFF075000680061007300650020003700000000000000FFFE
310
FF022D004E0002000000FFFEFF084E0065007700200077006F0072006B00000000000000FFFEFF022D00340002000000FFFEFF075000680061007300650020003400000000000000FFFEFF022D00350002000000FFFEFF075000680061007300650020003500000000000000FFFEFF022D00320002000000FFFEFF07500068
310
0061007300650020003200000000000000FFFEFF022D004D0002000000FFFEFF114900740065006D007300200074006F0020006200650020006D006F00760065006400000000000000FFFEFF022D00330002000000FFFEFF075000680061007300650020003300000000000000FFFEFF022D00310002000000FFFEFF075000
310
680061007300650020003100000000000000FFFEFF022D00460002000000FFFEFF0B460075007400750072006500200077006F0072006B00000000000000FFFEFF022D00440002000000FFFEFF144500780069007300740069006E006700200074006F002000640065006D006F006C006900730068000000000000000600FF
310
FF04001A004163416563556B4C61796572436F6D706F6E656E744669656C64FFFEFF174400690073006300690070006C0069006E0065002000440065007300690067006E00610074006F0072002000310001000000FFFEFF0440002C0040004000000000000100000000FFFEFF014100000000000780FFFEFF174400690073
310
006300690070006C0069006E0065002000440065007300690067006E00610074006F0072002000320001000000FFFEFF0440002C0040004000010000000100000000FFFEFF014400000000000780FFFEFF054D0061006A006F00720005000000FFFEFF052D00400040004000400000000000010000002DFFFEFF052D005700
310
61006C006C00000000000780FFFEFF064D0069006E006F007200310005000000FFFEFF022D002A0001000000010000002DFFFEFF052D004900640065006E00000000000780FFFEFF064D0069006E006F007200320005000000FFFEFF022D002A0001000000010000002DFFFEFF052D005400650078007400000000000780FF
310
FEFF0653007400610074007500730002000000FFFEFF022D002A0001000000010000002DFFFEFF022D004E0000000000050000010203040500FFFEFF00FFFEFF0320002D002000FFFEFF022C002000FFFEFF012000FFFEFF0320002D002000FFFEFF00
  0
XRECORD
  5
AE7F4
102
{ACAD_REACTORS
330
A21DF
102
}
330
A21DF
100
AcDbXrecord
280
     1
102
DISPLAYNAME
  1
Imperial24
102
FLAGS
 90
        0
  0
XRECORD
  5
AE7F3
102
{ACAD_REACTORS
330
A21DD
102
}
330
A21DD
100
AcDbXrecord
280
     1
102
DISPLAYNAME
  1
Imperial24
102
FLAGS
 90
        0
  0
CELLSTYLEMAP
  5
AE7F2
102
{ACAD_REACTORS
330
B4E
102
}
330
B4E
100
AcDbCellStyleMap
 90
        3
300
CELLSTYLE
  1
TABLEFORMAT_BEGIN
 90
        5
170
     1
 91
        0
 92
    32768
 62
   257
 93
        1
300
CONTENTFORMAT
  1
CONTENTFORMAT_BEGIN
 90
        0
 91
        0
 92
      512
 93
        0
300

 40
0.0
140
1.0
 94
        5
 62
     0
340
11
144
0.25
309
CONTENTFORMAT_END
171
     1
301
MARGIN
  1
CELLMARGIN_BEGIN
 40
0.06
 40
0.06
 40
0.06
 40
0.06
 40
0.18
 40
0.18
309
CELLMARGIN_END
 94
        6
 95
        1
302
GRIDFORMAT
  1
GRIDFORMAT_BEGIN
 90
        0
 91
        1
 62
     0
 92
       -2
340
0
 93
        0
 40
0.045
309
GRIDFORMAT_END
 95
        2
302
GRIDFORMAT
  1
GRIDFORMAT_BEGIN
 90
        0
 91
        1
 62
     0
 92
       -2
340
0
 93
        0
 40
0.045
309
GRIDFORMAT_END
 95
        4
302
GRIDFORMAT
  1
GRIDFORMAT_BEGIN
 90
        0
 91
        1
 62
     0
 92
       -2
340
0
 93
        0
 40
0.045
309
GRIDFORMAT_END
 95
        8
302
GRIDFORMAT
  1
GRIDFORMAT_BEGIN
 90
        0
 91
        1
 62
     0
 92
       -2
340
0
 93
        0
 40
0.045
309
GRIDFORMAT_END
 95
       16
302
GRIDFORMAT
  1
GRIDFORMAT_BEGIN
 90
        0
 91
        1
 62
     0
 92
       -2
340
0
 93
        0
 40
0.045
309
GRIDFORMAT_END
 95
       32
302
GRIDFORMAT
  1
GRIDFORMAT_BEGIN
 90
        0
 91
        1
 62
     0
 92
       -2
340
0
 93
        0
 40
0.045
309
GRIDFORMAT_END
309
TABLEFORMAT_END
  1
CELLSTYLE_BEGIN
 90
        1
 91
        1
300
_TITLE
309
CELLSTYLE_END
300
CELLSTYLE
  1
TABLEFORMAT_BEGIN
 90
        5
170
     1
 91
        0
 92
        0
 62
   257
 93
        1
300
CONTENTFORMAT
  1
CONTENTFORMAT_BEGIN
 90
        0
 91
        0
 92
      512
 93
        0
300

 40
0.0
140
1.0
 94
        5
 62
     0
340
11
144
0.18
309
CONTENTFORMAT_END
171
     1
301
MARGIN
  1
CELLMARGIN_BEGIN
 40
0.06
 40
0.06
 40
0.06
 40
0.06
 40
0.18
 40
0.18
309
CELLMARGIN_END
 94
        6
 95
        1
302
GRIDFORMAT
  1
GRIDFORMAT_BEGIN
 90
        0
 91
        1
 62
     0
 92
       -2
340
0
 93
        0
 40
0.045
309
GRIDFORMAT_END
 95
        2
302
GRIDFORMAT
  1
GRIDFORMAT_BEGIN
 90
        0
 91
        1
 62
     0
 92
       -2
340
0
 93
        0
 40
0.045
309
GRIDFORMAT_END
 95
        4
302
GRIDFORMAT
  1
GRIDFORMAT_BEGIN
 90
        0
 91
        1
 62
     0
 92
       -2
340
0
 93
        0
 40
0.045
309
GRIDFORMAT_END
 95
        8
302
GRIDFORMAT
  1
GRIDFORMAT_BEGIN
 90
        0
 91
        1
 62
     0
 92
       -2
340
0
 93
        0
 40
0.045
309
GRIDFORMAT_END
 95
       16
302
GRIDFORMAT
  1
GRIDFORMAT_BEGIN
 90
        0
 91
        1
 62
     0
 92
       -2
340
0
 93
        0
 40
0.045
309
GRIDFORMAT_END
 95
       32
302
GRIDFORMAT
  1
GRIDFORMAT_BEGIN
 90
        0
 91
        1
 62
     0
 92
       -2
340
0
 93
        0
 40
0.045
309
GRIDFORMAT_END
309
TABLEFORMAT_END
  1
CELLSTYLE_BEGIN
 90
        2
 91
        1
300
_HEADER
309
CELLSTYLE_END
300
CELLSTYLE
  1
TABLEFORMAT_BEGIN
 90
        5
170
     1
 91
        0
 92
        0
 62
   257
 93
        1
300
CONTENTFORMAT
  1
CONTENTFORMAT_BEGIN
 90
        0
 91
        0
 92
      512
 93
        0
300

 40
0.0
140
1.0
 94
        2
 62
     0
340
11
144
0.18
309
CONTENTFORMAT_END
171
     1
301
MARGIN
  1
CELLMARGIN_BEGIN
 40
0.06
 40
0.06
 40
0.06
 40
0.06
 40
0.18
 40
0.18
309
CELLMARGIN_END
 94
        6
 95
        1
302
GRIDFORMAT
  1
GRIDFORMAT_BEGIN
 90
        0
 91
        1
 62
     0
 92
       -2
340
0
 93
        0
 40
0.045
309
GRIDFORMAT_END
 95
        2
302
GRIDFORMAT
  1
GRIDFORMAT_BEGIN
 90
        0
 91
        1
 62
     0
 92
       -2
340
0
 93
        0
 40
0.045
309
GRIDFORMAT_END
 95
        4
302
GRIDFORMAT
  1
GRIDFORMAT_BEGIN
 90
        0
 91
        1
 62
     0
 92
       -2
340
0
 93
        0
 40
0.045
309
GRIDFORMAT_END
 95
        8
302
GRIDFORMAT
  1
GRIDFORMAT_BEGIN
 90
        0
 91
        1
 62
     0
 92
       -2
340
0
 93
        0
 40
0.045
309
GRIDFORMAT_END
 95
       16
302
GRIDFORMAT
  1
GRIDFORMAT_BEGIN
 90
        0
 91
        1
 62
     0
 92
       -2
340
0
 93
        0
 40
0.045
309
GRIDFORMAT_END
 95
       32
302
GRIDFORMAT
  1
GRIDFORMAT_BEGIN
 90
        0
 91
        1
 62
     0
 92
       -2
340
0
 93
        0
 40
0.045
309
GRIDFORMAT_END
309
TABLEFORMAT_END
  1
CELLSTYLE_BEGIN
 90
        3
 91
        2
300
_DATA
309
CELLSTYLE_END
  0
ENDSEC
  0
SECTION
  2
ACDSDATA
 70
     2
 71
     8
  0
ACDSSCHEMA
 90
        0
  1
AcDb_Thumbnail_Schema
  2
AcDbDs::ID
280
    10
 91
        8
  2
Thumbnail_Data
280
    15
 91
        0
101
ACDSRECORD
 95
        0
 90
        1
  2
AcDbDs::TreatedAsObjectData
280
     1
291
     1
101
ACDSRECORD
 95
        0
 90
        2
  2
AcDbDs::Legacy
280
     1
291
     1
101
ACDSRECORD
  1
AcDbDs::ID
 90
        3
  2
AcDs:Indexable
280
     1
291
     1
101
ACDSRECORD
  1
AcDbDs::ID
 90
        4
  2
AcDbDs::HandleAttribute
280
     7
282
     1
  0
ACDSSCHEMA
 90
        1
  1
AcDbDs::TreatedAsObjectDataSchema
  2
AcDbDs::TreatedAsObjectData
280
     1
 91
        0
  0
ACDSSCHEMA
 90
        2
  1
AcDbDs::LegacySchema
  2
AcDbDs::Legacy
280
     1
 91
        0
  0
ACDSSCHEMA
 90
        3
  1
AcDbDs::IndexedPropertySchema
  2
AcDs:Indexable
280
     1
 91
        0
  0
ACDSSCHEMA
 90
        4
  1
AcDbDs::HandleAttributeSchema
  2
AcDbDs::HandleAttribute
280
     7
 91
        1
284
     1
  0
ACDSRECORD
 90
        0
  2
AcDbDs::ID
280
    10
320
A21A1
  2
Thumbnail_Data
280
    15
 94
     3293
310
89504E470D0A1A0A0000000D4948445200000100000000C508030000008CFEDCE700000300504C5445FFFFFF000000C8C8C80000000000000000000000000000000000000000000000000000330000660000990000CC0000FF0033000033330033660033990033CC0033FF0066000066330066660066990066CC0066FF0099
310
000099330099660099990099CC0099FF00CC0000CC3300CC6600CC9900CCCC00CCFF00FF0000FF3300FF6600FF9900FFCC00FFFF3300003300333300663300993300CC3300FF3333003333333333663333993333CC3333FF3366003366333366663366993366CC3366FF3399003399333399663399993399CC3399FF33CC00
310
33CC3333CC6633CC9933CCCC33CCFF33FF0033FF3333FF6633FF9933FFCC33FFFF6600006600336600666600996600CC6600FF6633006633336633666633996633CC6633FF6666006666336666666666996666CC6666FF6699006699336699666699996699CC6699FF66CC0066CC3366CC6666CC9966CCCC66CCFF66FF0066
310
FF3366FF6666FF9966FFCC66FFFF9900009900339900669900999900CC9900FF9933009933339933669933999933CC9933FF9966009966339966669966999966CC9966FF9999009999339999669999999999CC9999FF99CC0099CC3399CC6699CC9999CCCC99CCFF99FF0099FF3399FF6699FF9999FFCC99FFFFCC0000CC00
310
33CC0066CC0099CC00CCCC00FFCC3300CC3333CC3366CC3399CC33CCCC33FFCC6600CC6633CC6666CC6699CC66CCCC66FFCC9900CC9933CC9966CC9999CC99CCCC99FFCCCC00CCCC33CCCC66CCCC99CCCCCCCCCCFFCCFF00CCFF33CCFF66CCFF99CCFFCCCCFFFFFF0000FF0033FF0066FF0099FF00CCFF00FFFF3300FF3333
310
FF3366FF3399FF33CCFF33FFFF6600FF6633FF6666FF6699FF66CCFF66FFFF9900FF9933FF9966FF9999FF99CCFF99FFFFCC00FFCC33FFCC66FFCC99FFCCCCFFCCFFFFFF00FFFF33FFFF66FFFF99FFFFCCFFFFFF0000000D0D0D1A1A1A2828283535354343435050505D5D5D6B6B6B787878868686939393A1A1A1AEAEAEBB
310
BBBBC9C9C9D6D6D6E4E4E4F1F1F1FFFFFF000000000000000000000000000000000000000000000000000000000000B0E2D2350000074F4944415478DAED9D4B82A4200C867322EFBFF22459D57A161C615A798500824F40C354D7A8A5B6F9487E025236FCFB78817FF0DD22000480008801FC7ECBCF4BDFEB00BCB8D47AC0
310
5B4B150010001F07F0130002400088080A000901012000048088A0009010100002400088080A000901012000048088A000901010000F17C46085964F00C0F5F55500C64E6C01A003115C2CFC32007426E742A058460E017BF5DC8E33353F10006F24AF493C544603803911349AF07200DEFB5B7A403B11C40D117C50035A01
310
C0D0FE3511C28B7F47CF2180018758035E0E8055BFD10006005F0B80B47DFEFD437900321098EB1EC0EED46F0411E4D59F01806F058050657F290F1835041073AD606180E4251A80091DF8D090183E6D7F5F00A8F90FD9DF9508E26620E49A816E00E075D59F4691FC9587D5FFFA10C0EBAA1FEB743E93070C092053FD80C5
310
10680760BE1040AECA11BA0530CFD701C06CC8E3ED8DC051119CE382F3B182983DC9B2D629809501AB47650BFCFD5300CB4BB18DE67FBD61FD41B02B7FCB086611C06DEB01409D06584BB9E540CCA51F2C6B886415A3A3612800A002CBAD1F785BC0F9814581CAEE647D819F40759108EDF280D8D9BD352A30D178BCAE73ED
310
0BE0B999D3EC4F84F6B5055702885CDC990B0CC6FAA2DEAF3001A8A4019B03220F8860C20320163DB231A85A0C3C26A607C619F6E7012D01D0082704162707A38356EFEDE2F24120854C4ABA00F0ABF78084D2AB40D5ADF793A040E72900D1A123358310D809B139D6268430CA1D19663C0C97074052C768545BF1B37080D0
310
00152FF5056033E0D0B46710347C3C015AE21D68F2E79D03E206043AC903A00E00BB7C08DA0070724F2A1AE2E4CFC64F551E706E76CC490073C2038297E7E0C2DFC9BD36103111F86CD3D13CE05200B5A97042C4A9132C57E2920130EE9FB65CEF0A279AC1060052224ED33B96EC0032B950B431402B8E43F5055C7B065134
310
23A2223B20E9FAAAB01BE968208E9607D032CFAB797FFF813566D91A88C1EC5D45EF6A0F743E73C384881B53E1AD519FE56D9AF4BB29B52346B58369AD01F04B51E45D9709A6BF576E3575841E16C6CDEE702F21105D8855835D00D8117E624852F47C33D81E407C096E5CF00C80F04E3926E6093603100667E20AAE088144
310
754372A2E4F3008E8C883B115CACAF12C164E2D38F08CEA9AE30D04E71B4716914D75A9F96ADB32A1C84EAFAC4E7A656009D03BB28F68BE146D30A1A91D83E08E31B45BD4E94B4DD9C6D0F501E40D8FDCF1E8441A8773D53142B3D605E43602E7840B22F939A2DDE0F00C0B31E408D26E3A72A6B706FD3E4DC7D8EE00610DF
310
A893E1D97486822B4E1F89B9CCAFBF899258A8FC75D1017046978480EA00600B0FA89E2485DBE1BF2ECE6B123457EC69979C35CD00FC2EF5009D0556ECE964A1791E50AF019BF56ABAC1ABFD6665CB036C84208C014061B1013009D4E44220B9E762B66E08743AC83A3FFDE601C544C878C0DA059A6D63181D645A41D73686
310
E1DE06005C9908E92EE05C950A839B03D03611826B3C402FCE1A406D2ACCBF2E1CF50D4E8E8CB74885B514963D206EF7F92CD2FA6F8E76A101C603745F60DB034C9244EE0BEC4F849EF780722B4032C1FC9ECE76E5EF0BB8AF0EF60EA022BFB3E301F9A42F8C83FCA06877AD40AD07981048257DF1E137D87C2780831EE02A
310
9E1F7EB7F92D3440D9314192F864F65C73C2C10094C703CCA0E83A8866F42E7924F67E73F46033E8EE0DFA90CF553EF43D59FA6022E4006C2442B429E8F7EEF0590FC82642189CE96D00A60280282EDE2682EE66E044E646F8F14F8C8E7C5B334800F03D53A2381C806222E401B0CFF5F4E94497F0851EB0268213EBF5E7D4
310
632011ACF48089E6C2FE16687650602C00650FD0D5EFC603010BB755074B840082492E9141AE17046B2EA8B07443118603901A30F754263245C6F5EE4B83A2C30300EA011EC034E587C4EA4E3B0E003BF7299815B52483DC03F69EB627112CDC373243012100374BB85D79EC111A7A2860E200B62ABF1F00973C4445E91952
310
C47EDE667C0E8052EA8300481E00D0DCFC679F2394CC04870070D97384C82C313B1EF0290046F54DF5C3381E70DDA3B4C2ACB7BDF94F03484D99F996074017CADF18008C0740FECA8CFC9115012000048088A02DB7CF5AE91A0022461336BF1402E5873DBF1B40F8DC63377793CC4734ABFA61A008FE43307BB247C29B2D66
310
1EA4D99D9D30372516FCD16E3AE4EE2FD3EE0440A5606BA2660C809A01D196E0EB81E9136E6D8568B77B00B0A9DAE96B237F0BC3D510BFB80C8010173FBE8C8510BF47040317A3FE97F48774F503FB0E58A6FE81D72C64428002350076B553070000D2BF7A324AB92C04D04DDAC7EFB5028107907C007BC3B1E33B84BB0180
310
8F7AE0214FC2D77A0ABE0A80CD03EDC35DD8AF6000CE3FDFA31B007EAFD4534D3200E0950000373A4461CED712C09DDDE10DA2B435C6A62120E301024000DC382224002404048000100022820240424000080001202228002404048000100022820240424000080001202228002404048000100022822F05F0E2521702CB7E
310
6F7DAFF1800F1501200004C0BFF5EDCBE5F300FE03E9FFA11DF3F59A310000000049454E44AE426082A300B838D0DDDC45CA540C0087ACEFBF0440C895BBAB4901003D1200A132208A6E7300C221F7FCB87C385C212AFBF0EB3440E7031480023870464801681350000A4001A8082A006D020A40012800154105A04D400128
310
0005A022A800B409280005A00054041580360105A00014808AE043013C38B5358129DF53B72D1EF0A2A400148002F8376FDE9C5E0FE03F33910119ABF4A35D0000000049454E44AE426082A98C58561EA5B1E5F901EECF7D50D8B95ADE551A3A8C11351E06C0FDB193283D54F6EB3F1D00CD0442C9166ABDDF73003002B4F4
310
7FC150F21F9B102180258747FB1FE470978CD0B254B5584F13220A4001288007394105A026A0001480025027A800D4041480025000EA0415809A800250000A409DA002501350000A4001A8137C3C800797361398AE7BEA6B8B06BCA8280005A000FED9973797D703F80F483056FC0F94E2B20000000049454E44AE4260823D
310
80FFA6BD4883BDDC5A6A0000000049454E44AE426082A90694DBDDF47700907C007F7AE2FF3B22537C680C691448FFFF35880074747BC50747652A9C01003E04809CCE5091FF82367056D819FA29D447ED395E4B888CDBA08D00785099009C768213806902138009C004603AC1B701F0E09267026BBDA7BEE768C08BCA0460
310
023001F8A7DFDE5C5E0FC07F153036D95C42CA8A0000000049454E44AE4260824E44AE426082BAC014C16300862E292EB09D35EC6B02033E552600138009C0BF8F97CF03F01F3BFEE972AD450A590000000049454E44AE426082807F1F2F9F07E03FCF7BC2D0801C39B80000000049454E44AE426082
  0
ACDSRECORD
 90
        0
  2
AcDbDs::ID
280
    10
320
A21B9
  2
Thumbnail_Data
280
    15
 94
     2765
310
89504E470D0A1A0A0000000D4948445200000100000000B5080300000087DCD12600000300504C5445FFFFFF000000C8C8C80000000000000000000000000000000000000000000000000000330000660000990000CC0000FF0033000033330033660033990033CC0033FF0066000066330066660066990066CC0066FF0099
310
000099330099660099990099CC0099FF00CC0000CC3300CC6600CC9900CCCC00CCFF00FF0000FF3300FF6600FF9900FFCC00FFFF3300003300333300663300993300CC3300FF3333003333333333663333993333CC3333FF3366003366333366663366993366CC3366FF3399003399333399663399993399CC3399FF33CC00
310
33CC3333CC6633CC9933CCCC33CCFF33FF0033FF3333FF6633FF9933FFCC33FFFF6600006600336600666600996600CC6600FF6633006633336633666633996633CC6633FF6666006666336666666666996666CC6666FF6699006699336699666699996699CC6699FF66CC0066CC3366CC6666CC9966CCCC66CCFF66FF0066
310
FF3366FF6666FF9966FFCC66FFFF9900009900339900669900999900CC9900FF9933009933339933669933999933CC9933FF9966009966339966669966999966CC9966FF9999009999339999669999999999CC9999FF99CC0099CC3399CC6699CC9999CCCC99CCFF99FF0099FF3399FF6699FF9999FFCC99FFFFCC0000CC00
310
33CC0066CC0099CC00CCCC00FFCC3300CC3333CC3366CC3399CC33CCCC33FFCC6600CC6633CC6666CC6699CC66CCCC66FFCC9900CC9933CC9966CC9999CC99CCCC99FFCCCC00CCCC33CCCC66CCCC99CCCCCCCCCCFFCCFF00CCFF33CCFF66CCFF99CCFFCCCCFFFFFF0000FF0033FF0066FF0099FF00CCFF00FFFF3300FF3333
310
FF3366FF3399FF33CCFF33FFFF6600FF6633FF6666FF6699FF66CCFF66FFFF9900FF9933FF9966FF9999FF99CCFF99FFFFCC00FFCC33FFCC66FFCC99FFCCCCFFCCFFFFFF00FFFF33FFFF66FFFF99FFFFCCFFFFFF0000000D0D0D1A1A1A2828283535354343435050505D5D5D6B6B6B787878868686939393A1A1A1AEAEAEBB
310
BBBBC9C9C9D6D6D6E4E4E4F1F1F1FFFFFF000000000000000000000000000000000000000000000000000000000000B0E2D235000007174944415478DAED9D4BD6E3280C85B522EF7FC44A34AA619D1A78096DF314200C71DB090FD15D89436CE7D7C795101827F06FF102FFFE2E5C340058B80800019003F87394891FAB00
310
FE4C5EEA00E6D6BC00100002400008000120000480001000024000080001200004C03000302A2B0048EC5C1200E0B200AC99AB02D0062686E267656800C8C500A6625205382BD1A308F578A30C0600B110038E6DC4F901601403A0DC0FCE09C0357F3078AD1880F113C213068F0300318A81990B4C0E00D3E6C7B50060EE05
310
2BC500444E0699FD973DC1C800B0F07C351E9E0840DAFC8B01C0BCD9B1694A6412004CABE3BB9FD81500D2E77FCBFEAE00704EFFB6FD1D01C08FEDC75E00E0B3E62353590A82D300E07DFED2C0FF19FDBB02508A7955014C02A0A479EC1480528F02287679B5C1DF2321E00600F528808B9087EFF7817700A8BCA0BA5DB07C
310
96E3759700181FC03D1480F3413F435C619E76BF75FC8FE8DE39B6CD5B74F7BD5B00C001888C2456D03A4ACADA6C8A4701D10EE3000062B8B304528321B2F1B439347550870709F520885D29C0590D56C869A5DD30D5C7DF6E2AC04901488539FE561EF06967F8980212ADFB30009057EFE4102D85D879FC998601E01BD6AB
310
378B07915F208D1A98C708076D2005B8E00E4C8B7B02BE613D20702CF8E3EB31A01F178024EC73388C0E4EEFF73102A31041B8413D0876D60BC46D0E102BDA93215D3F382DA4CEEFE3C7487940B1CB079F0D9174270A05C554A1270097DE463A741AEB20354B67FBC47E1231E3ACC9B94E4779400540ECE5CEC74932000024
310
F8E91DD1BB3A277FD359DEEE05DA23E21D002A07C045B2501109DE5450F9531D4427E808405B1E90F57E34DB0193E765C380740CE0C705300E0036DF89FA018CB46EFB8D28432040F4DF5CEF057A1C0BA4D98FC9E7A8DE4FE7D74D0CA966200C87D00806C61A0EFBA29436E37802E2FCCAC537F7D26B05DCBBA6D6D69F9886
310
01509FF4D9F4832FAD13465DCE097241302A7BF464CA61F4F12FBC3C5F6C95632A5EFED0A2A90700A47F851BD17F08203BC69C1811791A4FAC947E0240FEF90F01482F9695174AFE745A9CF9F4675C806BED2E002411AE714ADC05410BE34E00E45689F5302D1E323CF770F67FC77FF6C9D79E0F06C0F95AC547994E7257BB
310
3F06F757F29EE763C01EE781179B1100A81E955F28EA75A92C3AFFDD832B339B1A802ED55DED26A6297FAF2B45F16905B023990CC0EF6200AF810605D85C5031EFC7C3375F7B1103F44AD14E0098FCBE4501BAB84A6A73E1A85801F8C10D13DF05100644F4AA506E8F7101DAD0F9B4697214965CA0B795A2E8154D825EEA07
310
5601B97744A1327E9FAC89066C9F11E95301CA6481B9779414408CC1771281A762006940AE2D6DFFA7B4FD5E08570AE07A815E122146FEB401F9B6D41EA04EEB9519041415E0A3629C0E22C0C87980CB21298082E4432D26DEDE2D807A26685D403B80F2AFB25D9DCA43FC031A03D26564389002F4961903ABB6B1804D142E
310
4683D0D752D996B18056BF6A190B2033FA8D0DFEE8D6D95EC602CA64C2955DD14C9C27D705B24CB02700D17C00D9CCA60A742464DE729B688DB74B09B29CE7D695A16F01684984AC02D844C8F400F4A8E876B98E668478000DA9B0E900379587074CE2BFAD4DE6467B4D84DA15E0468369A8473E157E29F9FB9D02B2C190B5
310
901F0C7DC1FAEF2BC0CE08B9587F31183A63E138003E9D1273196F6957CB6618008D8950B838EA478FC0CF8E91547826050400E55DD9C1D07C0A28ED8A984E06ADA4001214475340632AECAF866E792AEC1C3F3A6AB66E3000C81B9F4F848602504F84880292A85F98159E500126026C69D42FCC0A4FA7801004E3A8BFCFA0
310
006850805F20B125517F7405F82D328B9D77739B5F23A373C186CE733C00790992A68B8236C4965505330008E2266BA4CE2552B54B08F5138F02C039460400F22BA4374EDC0B805A611400615AE8C7E53B00C05C15212EB0EDFB65E34F05002C808DC600E8C2FC1F01B089C06200C013B01B3D98FFB52F527299E01612C17D
310
29002612DAA1D0B6C3DE4904F81E00EBF25B88FFAB29A030505CCB05E840115603900D17D704000240000800012000048000181200227E67D94E9F00F2EF3C5F0B40F2CD9F66E1AE59C24EEFEB738BDA43BDAB7307E4FB233D61FA135A98BDF6E70947870F79EDABB4E21FB9CA0D4C6F6F64EA6B009003C09C84399AF9B0C7
310
01D09A1B00AE15D066557C34A30002F00D00EE0FE001C4B7B802DF6A6500B90220435C04908AEC0500FE979EECBA65722F5BF5FEBD840BB06F7C000052C640CFFF2200B27419C72B4FB88057008675BC9805880ECA473751DE0770E5F3AFFD30D60F0138F331070039809F668D6F00001763EC377EA7A79F1F0070BF00C17C
310
267400E0A5C1906BEA6BE85152BAD068900100638C9A643E40000800012000048000100002400008000120000480001000024000080001200004800010000240000800B7C7E4A509C0CC8F55006B150120000E007F172E1AC0E2E53FDA76E4538356837E0000000049454E44AE426082280005A00014800250000A40012800
310
05A00014800250000A4001280005A00014800278388087B743009EFCB80B60AEA60014C01BC0DF899B033079FB0F3708CD6E2E3C47990000000049454E44AE4260820C4003F8FBC36306F0E3E33F46BC776E6459FA1B0000000049454E44AE426082
  0
ACDSRECORD
 90
        0
  2
AcDbDs::ID
280
    10
320
22
  2
Thumbnail_Data
280
    15
 94
     3005
310
89504E470D0A1A0A0000000D49484452000001000000007B0803000000AC3EAEE200000300504C5445212830000000C8C8C80000000000000000000000000000000000000000000000000000330000660000990000CC0000FF0033000033330033660033990033CC0033FF0066000066330066660066990066CC0066FF0099
310
000099330099660099990099CC0099FF00CC0000CC3300CC6600CC9900CCCC00CCFF00FF0000FF3300FF6600FF9900FFCC00FFFF3300003300333300663300993300CC3300FF3333003333333333663333993333CC3333FF3366003366333366663366993366CC3366FF3399003399333399663399993399CC3399FF33CC00
310
33CC3333CC6633CC9933CCCC33CCFF33FF0033FF3333FF6633FF9933FFCC33FFFF6600006600336600666600996600CC6600FF6633006633336633666633996633CC6633FF6666006666336666666666996666CC6666FF6699006699336699666699996699CC6699FF66CC0066CC3366CC6666CC9966CCCC66CCFF66FF0066
310
FF3366FF6666FF9966FFCC66FFFF9900009900339900669900999900CC9900FF9933009933339933669933999933CC9933FF9966009966339966669966999966CC9966FF9999009999339999669999999999CC9999FF99CC0099CC3399CC6699CC9999CCCC99CCFF99FF0099FF3399FF6699FF9999FFCC99FFFFCC0000CC00
310
33CC0066CC0099CC00CCCC00FFCC3300CC3333CC3366CC3399CC33CCCC33FFCC6600CC6633CC6666CC6699CC66CCCC66FFCC9900CC9933CC9966CC9999CC99CCCC99FFCCCC00CCCC33CCCC66CCCC99CCCCCCCCCCFFCCFF00CCFF33CCFF66CCFF99CCFFCCCCFFFFFF0000FF0033FF0066FF0099FF00CCFF00FFFF3300FF3333
310
FF3366FF3399FF33CCFF33FFFF6600FF6633FF6666FF6699FF66CCFF66FFFF9900FF9933FF9966FF9999FF99CCFF99FFFFCC00FFCC33FFCC66FFCC99FFCCCCFFCCFFFFFF00FFFF33FFFF66FFFF99FFFFCCFFFFFF0000000D0D0D1A1A1A2828283535354343435050505D5D5D6B6B6B787878868686939393A1A1A1AEAEAEBB
310
BBBBC9C9C9D6D6D6E4E4E4F1F1F1FFFFFF000000000000000000000000000000000000000000000000000000000000B21171F6000002F44944415478DAED9BD771EC300C4551230B662528822558CC59DA9D797E16C07B66BC0AE4877189C0B04B04000000000000000000000000000000C01FC3CCE526709CF9D9E61305F0
310
D64E1EB044ADF9D1EEF47CAF813A1578088127F3950910CCE942808E8A7F4E1F2726FE1AFD4582C33C2027BF9206689703147B7F8981694EA05D00DEDA7F4608709F03CE4C7E6D10E8F000FECA7C62DA0A2034FCF99B5E3C5CE50A60ED37020CC3EF27FEC243C07E05A70BD767F939B07A80F390DBC29CAE6D2F75023C9AEF
310
FA7EF2ABC0470250319B876EF7495042229C05A00F869F722F8D022CEC774BF75FE70056970338673D5E74919B032647E587E4E7961D6601489800F65E0076B7F67F9003DE9E0B6E43A0197E9EDB58A900D6FA8F34E8C6DF18C3CE9ADC9CBB0455344D84CA8CD7A5BFEB8DB92EC663A7D63C1DD632116AFEED58E703C69089
310
37FE36B686F6BA384A5BE3DD9EA0A8D5D05CBD5DFA0B0278F2656CEDCE42640A30ADF416B84B00B7591E2E1C5FEA44C8ED264271F837F3E476DCC56FF5ED04B09707D8B5008B3A275809E61B0FE095C96122C0342741A91B838B3D91EBC1D7415B4D1E9BDDE401620560B716809A10189AB3818293E09C043A0BFDE85F4160
310
6B1EA4CE78C7CA93A009C6531180AAF1B90C683903BCA90297003755604A820A055895C1E8045CF3DEC36A90C508B0AC02DD1B2E1110BE1345C31724F409D054816A7B7EACCB22E155602B40990A4FF300664DA7E3DB1C10164379E0E96947489F007129CCC32CA99C932912206D85944BFA343904C2ABB81DC0A5F3311E60
310
C6DD50A7CF03FA412E0F794B2CBD0A79B0B4ABF480A10AB41EE007BF6F3E4A80B10E6813A07DE8524008015E98AFAF0AF42401620E30A37B485FFD7FC24A80B3083B8255003A8EB8251AEC3F5300EAAA009D487B3072AA007DDA3F5383721C0A00007A26FF47FEDAB1B53F7EF0EFF2EEF1FF75F3DF2C403ACD8100FF8F970A
310
907FFFCB74C02F7E3702ACF2C13F4D35AF94341B5D4FB70F13609E079C15020000000000000000000000000000006FE607DA27FCA6C7F49B080000000049454E44AE42608249454E44AE426082982ED5AA0000000049454E44AE426082B81901C205441DA09B809120280838EB00E8ECB756F11B91B13A8087236183B04BFF
310
856E02527BEC4601A1FF8B145B44A0DD057A7FBC122006E418EDBF5300E9FE2179A6828C007077DF5D82804C0D1019F8030294B90A4FC13079C0FD77D67A7C021310B2C07E04F84980AC03BE25402313613A84F0C4FE35098843D32D0908C59F7BF6D9F57F3E6D04180C866DD6024B10F063B6A72380E2531F3EDC1DFAC704
310
FC5C91E9644B02E8E704CC16927817D7E71EB00001BC8F8DA6C07F0801F18147E92930853B2C5E96040E84C1BF23E07F134D21064802602302C2D37FA89BAC3628CE615F020C0683C16030180C0683C16030180C068362FC0351FFE602EF127DF40000000049454E44AE426082454E44AE4260825385B967FF73AE93000000
310
0049454E44AE4260824781DA21561640A503BD4161F154B0C170230156C01F0A55EEF97E04BC0D0000000049454E44AE4260821611C41201262220701CC4F91480AD406582309B642B88E9E084F06D6A00302905F23C25054B962C59B264C9926184267DCC6B81CF2C4C8D1FD4A7B740F6A3F871F0AA4D55DD691F1A3F0E01
310
F2B26CE364408200D5A7734668CCC7C3127FDF81400535AEE713B0EF61AD71E5FEA500DDD688212DA0582F752DBF4A8026821F033F491020FED613B25FF891CD5A38FE3FCF4E7E7F7F044927D820A00402782201A4AD41FE8FD2E301C13309280FFE25573B66F8E28FF65A601602962C59B264C9922543CB3F14B5230C5F37
310
A0130000000049454E44AE426082B63A0172D86DE1BEC99F97C26C9C0D661AEC860035E6862F46EE7E4109CA2B042C2588E5A1CBDF0E821501688D06FCC37ED0038A1F8ABACF556247F60633FE6AE6AF030284071833BF3D104066373004837E08004C29D09107D852A00B02C49DF4A612EC2708D6F83B202022570C80BA22
310
40505169C1C713201D3FAE83BA22A0DCA847859F4C800EFD5C77FEEE4C001D41406F3F1B5D10D0DF2FA717EA074CBD591D04BB2380CDF59E08A885509F0C748ADF5F1F117E528C3A35B62F0FDB6A4FFDFF4A2F012F01AF6DF40074EA0B2F01BD13F0C680B709BC04BC04BC41F0B5D75E7B75C09B0592FD015EB7AB903D4335
310
250000000049454E44AE426082EB460100919A9EA8071300A300D40BF6DD95B1AF2112CB179C7302088BECE04B8D00207EE3D7C304BC0380C100A4E2F92BBFC25F9C4B846AE9CB058129235D17008554F872004A3A79D041D09D12003DE3E3D50D112FA33DE6B5E203F06C0046EB7F3F9A1706E365003E13F800BC0740210C
310
1ACB973778A60BD848848CF00600FC1E0CA0900AEB2A40ABC5934D2015CFC9FF730C9E1C06131DF8BDC303928E106D88C0FB007837FF7B91FC5157F8B196BEB35D724D5FF61BDFF8C66DC61F34B9BB8815727F670000000049454E44AE4260829BDBCF9FFDE7B6F86BAEBEB7FD6F9F05000E1439BFEB00C66DF46FE78356D4
310
BD7FAB978ABA3FE7EBF6B3EE0B7E98F89DA6056768E3873B7C9A485E9B69F8FE1862663EBF391826400A4F368A133A60E601CE3B764F6A845F16D56B7C923398F8AD8C3E96DBF9A250F863F43F7D9E3DFC9B18DE3A00DA64CDEB6DCABAF3F7815F333EAF44F3F79ECA278D00BEE8B1B366B3AF8A4B9E38BB786EBFBE24341F
310
24D5BC2AEEBF342E391F0A0249AFF8A2D1380FDA7106D038BD7FE187F5F7F9EDFD4E3E538C6C0E15E79C6A5879507380A7759783463D1B875EAC7BC113468E83A49A2AB2BFCE01CFF42EAF81A1970600CFF62E2F4195AF0058EA4C84D92DDFE0001EF7C23370F693BA9EB2AE4CF1DEFD9663CA019C5D5BE1219CF9A55CABFC
310
BB883832C03FC263BCCEA277971BD5AFEA7AA722D5FCE0EE391611BF2343EF82DB7B8B15BC3D141CFD85A23F2C16DE7E98FF8EBFA0FBF3F5DF00FFD9961CFF01CE140027BD33610D0000000049454E44AE426082
  0
ENDSEC
  0
EOF
