  0
SECTION
  2
HEADER
  9
$ACADVER
  1
AC1027
  9
$ACADMAINTVER
 70
    83
  9
$DWGCODEPAGE
  3
ANSI_1252
  9
$LASTSAVEDBY
  1
chadclouser
  9
$REQUIREDVERSIONS
160
                 0
  9
$INSBASE
 10
0.0
 20
0.0
 30
0.0
  9
$EXTMIN
 10
7.822990362868608
 20
-50.45384359328554
 30
0.0
  9
$EXTMAX
 10
41.4354599390911
 20
-17.07570790809175
 30
0.0
  9
$LIMMIN
 10
0.0
 20
0.0
  9
$LIMMAX
 10
12.0
 20
9.0
  9
$ORTHOMODE
 70
     1
  9
$REGENMODE
 70
     1
  9
$FILLMODE
 70
     1
  9
$QTEXTMODE
 70
     0
  9
$MIRRTEXT
 70
     0
  9
$LTSCALE
 40
1.0
  9
$ATTMODE
 70
     1
  9
$TEXTSIZE
 40
12.10402048440558
  9
$TRACEWID
 40
0.05
  9
$TEXTSTYLE
  7
Standard
  9
$CLAYER
  8
0
  9
$CELTYPE
  6
ByLayer
  9
$CECOLOR
 62
   256
  9
$CELTSCALE
 40
1.0
  9
$DISPSILH
 70
     0
  9
$DIMSCALE
 40
1.0
  9
$DIMASZ
 40
1.0
  9
$DIMEXO
 40
0.05
  9
$DIMDLI
 40
0.505
  9
$DIMRND
 40
0.0
  9
$DIMDLE
 40
0.675
  9
$DIMEXE
 40
0.675
  9
$DIMTP
 40
0.0
  9
$DIMTM
 40
0.0
  9
$DIMTXT
 40
1.0
  9
$DIMCEN
 40
0.09
  9
$DIMTSZ
 40
0.0
  9
$DIMTOL
 70
     0
  9
$DIMLIM
 70
     0
  9
$DIMTIH
 70
     0
  9
$DIMTOH
 70
     0
  9
$DIMSE1
 70
     0
  9
$DIMSE2
 70
     0
  9
$DIMTAD
 70
     0
  9
$DIMZIN
 70
     3
  9
$DIMBLK
  1
ARCHTICK
  9
$DIMASO
 70
     1
  9
$DIMSHO
 70
     1
  9
$DIMPOST
  1

  9
$DIMAPOST
  1

  9
$DIMALT
 70
     0
  9
$DIMALTD
 70
     2
  9
$DIMALTF
 40
25.4
  9
$DIMLFAC
 40
0.9999999999999998
  9
$DIMTOFL
 70
     1
  9
$DIMTVP
 40
0.0
  9
$DIMTIX
 70
     0
  9
$DIMSOXD
 70
     0
  9
$DIMSAH
 70
     0
  9
$DIMBLK1
  1

  9
$DIMBLK2
  1

  9
$DIMSTYLE
  2
HUNTER-1.5INCH
  9
$DIMCLRD
 70
   256
  9
$DIMCLRE
 70
   256
  9
$DIMCLRT
 70
   256
  9
$DIMTFAC
 40
1.0
  9
$DIMGAP
 40
0.04
  9
$DIMJUST
 70
     0
  9
$DIMSD1
 70
     0
  9
$DIMSD2
 70
     0
  9
$DIMTOLJ
 70
     1
  9
$DIMTZIN
 70
     0
  9
$DIMALTZ
 70
     0
  9
$DIMALTTZ
 70
     0
  9
$DIMUPT
 70
     0
  9
$DIMDEC
 70
     0
  9
$DIMTDEC
 70
     0
  9
$DIMALTU
 70
     2
  9
$DIMALTTD
 70
     2
  9
$DIMTXSTY
  7
Hunter
  9
$DIMAUNIT
 70
     0
  9
$DIMADEC
 70
     0
  9
$DIMALTRND
 40
0.0
  9
$DIMAZIN
 70
     0
  9
$DIMDSEP
 70
    46
  9
$DIMATFIT
 70
     1
  9
$DIMFRAC
 70
     0
  9
$DIMLDRBLK
  1
Open90
  9
$DIMLUNIT
 70
     4
  9
$DIMLWD
 70
    -1
  9
$DIMLWE
 70
    -2
  9
$DIMTMOVE
 70
     2
  9
$DIMFXL
 40
1.0
  9
$DIMFXLON
 70
     0
  9
$DIMJOGANG
 40
0.7853981633974483
  9
$DIMTFILL
 70
     0
  9
$DIMTFILLCLR
 70
     0
  9
$DIMARCSYM
 70
     0
  9
$DIMLTYPE
  6

  9
$DIMLTEX1
  6

  9
$DIMLTEX2
  6

  9
$DIMTXTDIRECTION
 70
     0
  9
$LUNITS
 70
     4
  9
$LUPREC
 70
     4
  9
$SKETCHINC
 40
0.1
  9
$FILLETRAD
 40
0.0
  9
$AUNITS
 70
     0
  9
$AUPREC
 70
     2
  9
$MENU
  1
.
  9
$ELEVATION
 40
0.0
  9
$PELEVATION
 40
0.0
  9
$THICKNESS
 40
0.0
  9
$LIMCHECK
 70
     0
  9
$CHAMFERA
 40
0.0
  9
$CHAMFERB
 40
0.0
  9
$CHAMFERC
 40
0.0
  9
$CHAMFERD
 40
0.0
  9
$SKPOLY
 70
     0
  9
$TDCREATE
 40
2454770.393585949
  9
$TDUCREATE
 40
2454770.601919282
  9
$TDUPDATE
 40
2458066.624037697
  9
$TDUUPDATE
 40
2458066.832371030
  9
$TDINDWG
 40
95.9052865162
  9
$TDUSRTIMER
 40
95.9052863426
  9
$USRTIMER
 70
     1
  9
$ANGBASE
 50
0.0
  9
$ANGDIR
 70
     0
  9
$PDMODE
 70
     0
  9
$PDSIZE
 40
0.0
  9
$PLINEWID
 40
0.0
  9
$SPLFRAME
 70
     0
  9
$SPLINETYPE
 70
     6
  9
$SPLINESEGS
 70
     8
  9
$HANDSEED
  5
AE6F2
  9
$SURFTAB1
 70
     6
  9
$SURFTAB2
 70
     6
  9
$SURFTYPE
 70
     6
  9
$SURFU
 70
     6
  9
$SURFV
 70
     6
  9
$UCSBASE
  2

  9
$UCSNAME
  2

  9
$UCSORG
 10
0.0
 20
0.0
 30
0.0
  9
$UCSXDIR
 10
1.0
 20
0.0
 30
0.0
  9
$UCSYDIR
 10
0.0
 20
1.0
 30
0.0
  9
$UCSORTHOREF
  2

  9
$UCSORTHOVIEW
 70
     0
  9
$UCSORGTOP
 10
0.0
 20
0.0
 30
0.0
  9
$UCSORGBOTTOM
 10
0.0
 20
0.0
 30
0.0
  9
$UCSORGLEFT
 10
0.0
 20
0.0
 30
0.0
  9
$UCSORGRIGHT
 10
0.0
 20
0.0
 30
0.0
  9
$UCSORGFRONT
 10
0.0
 20
0.0
 30
0.0
  9
$UCSORGBACK
 10
0.0
 20
0.0
 30
0.0
  9
$PUCSBASE
  2

  9
$PUCSNAME
  2

  9
$PUCSORG
 10
0.0
 20
0.0
 30
0.0
  9
$PUCSXDIR
 10
1.0
 20
0.0
 30
0.0
  9
$PUCSYDIR
 10
0.0
 20
1.0
 30
0.0
  9
$PUCSORTHOREF
  2

  9
$PUCSORTHOVIEW
 70
     0
  9
$PUCSORGTOP
 10
0.0
 20
0.0
 30
0.0
  9
$PUCSORGBOTTOM
 10
0.0
 20
0.0
 30
0.0
  9
$PUCSORGLEFT
 10
0.0
 20
0.0
 30
0.0
  9
$PUCSORGRIGHT
 10
0.0
 20
0.0
 30
0.0
  9
$PUCSORGFRONT
 10
0.0
 20
0.0
 30
0.0
  9
$PUCSORGBACK
 10
0.0
 20
0.0
 30
0.0
  9
$USERI1
 70
     0
  9
$USERI2
 70
     0
  9
$USERI3
 70
     0
  9
$USERI4
 70
     0
  9
$USERI5
 70
     0
  9
$USERR1
 40
0.0
  9
$USERR2
 40
0.0
  9
$USERR3
 40
0.0
  9
$USERR4
 40
0.0
  9
$USERR5
 40
12.07090419886942
  9
$WORLDVIEW
 70
     1
  9
$SHADEDGE
 70
     3
  9
$SHADEDIF
 70
    70
  9
$TILEMODE
 70
     1
  9
$MAXACTVP
 70
    64
  9
$PINSBASE
 10
0.0
 20
0.0
 30
0.0
  9
$PLIMCHECK
 70
     0
  9
$PEXTMIN
 10
0.0151271339565469
 20
0.0127806155593326
 30
-0.0000000000000058
  9
$PEXTMAX
 10
7.790080900453517
 20
10.25763972358691
 30
0.0000000000000104
  9
$PLIMMIN
 10
-0.2281003861915408
 20
-0.7005413686196636
  9
$PLIMMAX
 10
8.039616149241531
 20
10.99237201720711
  9
$UNITMODE
 70
     0
  9
$VISRETAIN
 70
     1
  9
$PLINEGEN
 70
     0
  9
$PSLTSCALE
 70
     1
  9
$TREEDEPTH
 70
  3020
  9
$CMLSTYLE
  2
Standard
  9
$CMLJUST
 70
     1
  9
$CMLSCALE
 40
8.0
  9
$PROXYGRAPHICS
 70
     1
  9
$MEASUREMENT
 70
     0
  9
$CELWEIGHT
370
    -1
  9
$ENDCAPS
280
     0
  9
$JOINSTYLE
280
     0
  9
$LWDISPLAY
290
     0
  9
$INSUNITS
 70
     1
  9
$HYPERLINKBASE
  1

  9
$STYLESHEET
  1
Standard Pen Settings.ctb
  9
$XEDIT
290
     1
  9
$CEPSNTYPE
380
     0
  9
$PSTYLEMODE
290
     1
  9
$FINGERPRINTGUID
  2
{042633EE-7B2A-4DA3-9B1E-3D8485D08136}
  9
$VERSIONGUID
  2
{76AFB3DB-5DAE-42E0-A549-848A93E4FADB}
  9
$EXTNAMES
290
     1
  9
$PSVPSCALE
 40
0.0
  9
$OLESTARTUP
290
     0
  9
$SORTENTS
280
   127
  9
$INDEXCTL
280
     0
  9
$HIDETEXT
280
     1
  9
$XCLIPFRAME
280
     0
  9
$HALOGAP
280
     0
  9
$OBSCOLOR
 70
   257
  9
$OBSLTYPE
280
     0
  9
$INTERSECTIONDISPLAY
280
     0
  9
$INTERSECTIONCOLOR
 70
   257
  9
$DIMASSOC
280
     2
  9
$PROJECTNAME
  1

  9
$CAMERADISPLAY
290
     0
  9
$LENSLENGTH
 40
50.0
  9
$CAMERAHEIGHT
 40
0.0
  9
$STEPSPERSEC
 40
2.0
  9
$STEPSIZE
 40
6.0
  9
$3DDWFPREC
 40
2.0
  9
$PSOLWIDTH
 40
0.25
  9
$PSOLHEIGHT
 40
4.0
  9
$LOFTANG1
 40
1.570796326794896
  9
$LOFTANG2
 40
1.570796326794896
  9
$LOFTMAG1
 40
0.0
  9
$LOFTMAG2
 40
0.0
  9
$LOFTPARAM
 70
     7
  9
$LOFTNORMALS
280
     1
  9
$LATITUDE
 40
37.795
  9
$LONGITUDE
 40
-122.394
  9
$NORTHDIRECTION
 40
0.0
  9
$TIMEZONE
 70
 -8000
  9
$LIGHTGLYPHDISPLAY
280
     1
  9
$TILEMODELIGHTSYNCH
280
     1
  9
$CMATERIAL
347
96
  9
$SOLIDHIST
280
     1
  9
$SHOWHIST
280
     1
  9
$DWFFRAME
280
     2
  9
$DGNFRAME
280
     0
  9
$REALWORLDSCALE
290
     1
  9
$INTERFERECOLOR
 62
     1
  9
$INTERFEREOBJVS
345
A3
  9
$INTERFEREVPVS
346
A0
  9
$CSHADOW
280
     0
  9
$SHADOWPLANELOCATION
 40
0.0
  0
ENDSEC
  0
SECTION
  2
CLASSES
  0
CLASS
  1
ACDBDICTIONARYWDFLT
  2
AcDbDictionaryWithDefault
  3
ObjectDBX Classes
 90
        0
 91
        1
280
     0
281
     0
  0
CLASS
  1
ACDBPLACEHOLDER
  2
AcDbPlaceHolder
  3
ObjectDBX Classes
 90
        0
 91
        1
280
     0
281
     0
  0
CLASS
  1
LAYOUT
  2
AcDbLayout
  3
ObjectDBX Classes
 90
        0
 91
        3
280
     0
281
     0
  0
CLASS
  1
DICTIONARYVAR
  2
AcDbDictionaryVar
  3
ObjectDBX Classes
 90
        0
 91
       13
280
     0
281
     0
  0
CLASS
  1
TABLESTYLE
  2
AcDbTableStyle
  3
ObjectDBX Classes
 90
     4095
 91
        1
280
     0
281
     0
  0
CLASS
  1
MATERIAL
  2
AcDbMaterial
  3
ObjectDBX Classes
 90
     1153
 91
        3
280
     0
281
     0
  0
CLASS
  1
VISUALSTYLE
  2
AcDbVisualStyle
  3
ObjectDBX Classes
 90
     4095
 91
       26
280
     0
281
     0
  0
CLASS
  1
EXACXREFPANELOBJECT
  2
ExAcXREFPanelObject
  3
EXAC_ESW
 90
     1025
 91
        0
280
     0
281
     0
  0
CLASS
  1
NPOCOLLECTION
  2
AcDbImpNonPersistentObjectsCollection
  3
ObjectDBX Classes
 90
     1153
 91
        0
280
     0
281
     0
  0
CLASS
  1
PLOTSETTINGS
  2
AcDbPlotSettings
  3
ObjectDBX Classes
 90
        0
 91
        6
280
     0
281
     0
  0
CLASS
  1
SORTENTSTABLE
  2
AcDbSortentsTable
  3
ObjectDBX Classes
 90
        0
 91
        1
280
     0
281
     0
  0
CLASS
  1
ACAD_EVALUATION_GRAPH
  2
AcDbEvalGraph
  3
ObjectDBX Classes
 90
     1153
 91
        0
280
     0
281
     0
  0
CLASS
  1
ACAECUSTOBJ
  2
AcAeEditorObj
  3
AcAeEditorObj
 90
     1024
 91
        0
280
     0
281
     0
  0
CLASS
  1
ACDB_DYNAMICBLOCKPURGEPREVENTER_VERSION
  2
AcDbDynamicBlockPurgePreventer
  3
ObjectDBX Classes
 90
     1153
 91
        0
280
     0
281
     0
  0
CLASS
  1
BLOCKVISIBILITYPARAMETER
  2
AcDbBlockVisibilityParameter
  3
ObjectDBX Classes
 90
     1153
 91
        0
280
     0
281
     0
  0
CLASS
  1
BLOCKVISIBILITYGRIP
  2
AcDbBlockVisibilityGrip
  3
ObjectDBX Classes
 90
     1153
 91
        0
280
     0
281
     0
  0
CLASS
  1
BLOCKGRIPLOCATIONCOMPONENT
  2
AcDbBlockGripExpr
  3
ObjectDBX Classes
 90
     1153
 91
        0
280
     0
281
     0
  0
CLASS
  1
ACDB_BLOCKREPRESENTATION_DATA
  2
AcDbBlockRepresentationData
  3
ObjectDBX Classes
 90
     1153
 91
        0
280
     0
281
     0
  0
CLASS
  1
BLOCKROTATIONPARAMETER
  2
AcDbBlockRotationParameter
  3
ObjectDBX Classes
 90
     1153
 91
        0
280
     0
281
     0
  0
CLASS
  1
BLOCKROTATIONGRIP
  2
AcDbBlockRotationGrip
  3
ObjectDBX Classes
 90
     1153
 91
        0
280
     0
281
     0
  0
CLASS
  1
BLOCKROTATEACTION
  2
AcDbBlockRotateAction
  3
ObjectDBX Classes
 90
     1153
 91
        0
280
     0
281
     0
  0
CLASS
  1
EXACTERMXREFMAP
  2
ExAcTermXrefMap
  3
EXAC_SERVICE
 90
     1025
 91
        0
280
     0
281
     0
  0
CLASS
  1
RASTERVARIABLES
  2
AcDbRasterVariables
  3
ISM
 90
        0
 91
        1
280
     0
281
     0
  0
CLASS
  1
SCALE
  2
AcDbScale
  3
ObjectDBX Classes
 90
     1153
 91
       37
280
     0
281
     0
  0
CLASS
  1
MLEADERSTYLE
  2
AcDbMLeaderStyle
  3
ACDB_MLEADERSTYLE_CLASS
 90
     4095
 91
        1
280
     0
281
     0
  0
CLASS
  1
CELLSTYLEMAP
  2
AcDbCellStyleMap
  3
ObjectDBX Classes
 90
     1152
 91
        1
280
     0
281
     0
  0
CLASS
  1
BLOCKLINEARPARAMETER
  2
AcDbBlockLinearParameter
  3
ObjectDBX Classes
 90
     1153
 91
        0
280
     0
281
     0
  0
CLASS
  1
BLOCKLINEARGRIP
  2
AcDbBlockLinearGrip
  3
ObjectDBX Classes
 90
     1153
 91
        0
280
     0
281
     0
  0
CLASS
  1
BLOCKSCALEACTION
  2
AcDbBlockScaleAction
  3
ObjectDBX Classes
 90
     1153
 91
        0
280
     0
281
     0
  0
CLASS
  1
WIPEOUT
  2
AcDbWipeout
  3
WipeOut|Product Desc: Object Enabler for WipeOut entity | Company: Autodesk, Inc. | WEB Address: www.autodesk.com
 90
     2175
 91
        0
280
     0
281
     1
  0
CLASS
  1
WIPEOUTVARIABLES
  2
AcDbWipeoutVariables
  3
"WipeOut|Product Desc:     WipeOut Dbx Application|Company:          Autodesk, Inc.|WEB Address:      www.autodesk.com"
 90
        0
 91
        1
280
     0
281
     0
  0
CLASS
  1
DIMASSOC
  2
AcDbDimAssoc
  3
"AcDbDimAssoc|Product Desc:     AcDim ARX App For Dimension|Company:          Autodesk, Inc.|WEB Address:      www.autodesk.com"
 90
        0
 91
        0
280
     0
281
     0
  0
CLASS
  1
AEC_REFEDIT_STATUS_TRACKER
  2
AecDbRefEditStatusTracker
  3
AecArchBase70|Product Desc: Autodesk Architectural Desktop 2007 |Company: Autodesk,Inc. |WEB Address: www.autodesk.com
 90
      129
 91
        0
280
     0
281
     0
  0
CLASS
  1
BLOCKPOLARPARAMETER
  2
AcDbBlockPolarParameter
  3
ObjectDBX Classes
 90
     1153
 91
        0
280
     0
281
     0
  0
CLASS
  1
BLOCKPOLARGRIP
  2
AcDbBlockPolarGrip
  3
ObjectDBX Classes
 90
     1153
 91
        0
280
     0
281
     0
  0
CLASS
  1
BLOCKSTRETCHACTION
  2
AcDbBlockStretchAction
  3
ObjectDBX Classes
 90
     1153
 91
        0
280
     0
281
     0
  0
CLASS
  1
BLOCKFLIPPARAMETER
  2
AcDbBlockFlipParameter
  3
ObjectDBX Classes
 90
     1153
 91
        0
280
     0
281
     0
  0
CLASS
  1
BLOCKFLIPGRIP
  2
AcDbBlockFlipGrip
  3
ObjectDBX Classes
 90
     1153
 91
        0
280
     0
281
     0
  0
CLASS
  1
BLOCKFLIPACTION
  2
AcDbBlockFlipAction
  3
ObjectDBX Classes
 90
     1153
 91
        0
280
     0
281
     0
  0
CLASS
  1
AEC_NOTIFICATION_TRACKER
  2
AecDbNotificationTracker
  3
AecBase70|Product Desc: Autodesk Architectural Desktop 2007 |Company: Autodesk,Inc. |WEB Address: www.autodesk.com
 90
      129
 91
        0
280
     0
281
     0
  0
CLASS
  1
ACDBSECTIONVIEWSTYLE
  2
AcDbSectionViewStyle
  3
ObjectDBX Classes
 90
     1025
 91
        1
280
     0
281
     0
  0
CLASS
  1
ACDBDETAILVIEWSTYLE
  2
AcDbDetailViewStyle
  3
ObjectDBX Classes
 90
     1025
 91
        1
280
     0
281
     0
  0
CLASS
  1
AEC_DISP_REP_ANCHOR_TAG_TO_ENT
  2
AecDbDispRepAnchorTagToEnt
  3
AecBase70|Product Desc: Autodesk Architectural Desktop 2007 |Company: Autodesk,Inc. |WEB Address: www.autodesk.com
 90
      129
 91
        1
280
     0
281
     0
  0
CLASS
  1
AEC_DISP_PROPS_ENT
  2
AecDbDispPropsEnt
  3
AecBase70|Product Desc: Autodesk Architectural Desktop 2007 |Company: Autodesk,Inc. |WEB Address: www.autodesk.com
 90
      129
 91
        7
280
     0
281
     0
  0
CLASS
  1
AEC_DISP_REP_2D_SECTION
  2
AecDbDispRep2dSection
  3
AecBase70|Product Desc: Autodesk Architectural Desktop 2007 |Company: Autodesk,Inc. |WEB Address: www.autodesk.com
 90
      129
 91
        1
280
     0
281
     0
  0
CLASS
  1
AEC_VARS_DWG_SETUP
  2
AecDbVarsDwgSetup
  3
AecBase70|Product Desc: Autodesk Architectural Desktop 2007 |Company: Autodesk,Inc. |WEB Address: www.autodesk.com
 90
      129
 91
        1
280
     0
281
     0
  0
CLASS
  1
AEC_DISP_PROPS_2D_SECTION
  2
AecDbDispProps2dSection
  3
AecBase70|Product Desc: Autodesk Architectural Desktop 2007 |Company: Autodesk,Inc. |WEB Address: www.autodesk.com
 90
      129
 91
        1
280
     0
281
     0
  0
CLASS
  1
AEC_DISP_REP_ANCHOR
  2
AecDbDispRepAnchor
  3
AecBase70|Product Desc: Autodesk Architectural Desktop 2007 |Company: Autodesk,Inc. |WEB Address: www.autodesk.com
 90
      129
 91
        1
280
     0
281
     0
  0
CLASS
  1
AEC_DISP_REP_ANCHOR_ENT_TO_NODE
  2
AecDbDispRepAnchorEntToNode
  3
AecBase70|Product Desc: Autodesk Architectural Desktop 2007 |Company: Autodesk,Inc. |WEB Address: www.autodesk.com
 90
      129
 91
        1
280
     0
281
     0
  0
CLASS
  1
AEC_DISP_REP_ANCHOR_EXT_TAG_TO_ENT
  2
AecDbDispRepAnchorExtendedTagToEnt
  3
AecBase70|Product Desc: Autodesk Architectural Desktop 2007 |Company: Autodesk,Inc. |WEB Address: www.autodesk.com
 90
      129
 91
        1
280
     0
281
     0
  0
CLASS
  1
AEC_DISP_REP_CLIP_VOLUME_MODEL
  2
AecDbDispRepClipVolModel
  3
AecBase70|Product Desc: Autodesk Architectural Desktop 2007 |Company: Autodesk,Inc. |WEB Address: www.autodesk.com
 90
      129
 91
        1
280
     0
281
     0
  0
CLASS
  1
AEC_DISP_PROPS_CLIP_VOLUME
  2
AecDbDispPropsClipVol
  3
AecBase70|Product Desc: Autodesk Architectural Desktop 2007 |Company: Autodesk,Inc. |WEB Address: www.autodesk.com
 90
      129
 91
       12
280
     0
281
     0
  0
CLASS
  1
AEC_DISP_REP_LAYOUT_GRID2D
  2
AecDbDispRepLayoutGrid2d
  3
AecBase70|Product Desc: Autodesk Architectural Desktop 2007 |Company: Autodesk,Inc. |WEB Address: www.autodesk.com
 90
      129
 91
        1
280
     0
281
     0
  0
CLASS
  1
AEC_DISP_PROPS_LAYOUT_GRID2D
  2
AecDbDispPropsLayoutGrid2d
  3
AecBase70|Product Desc: Autodesk Architectural Desktop 2007 |Company: Autodesk,Inc. |WEB Address: www.autodesk.com
 90
      129
 91
       11
280
     0
281
     0
  0
CLASS
  1
AEC_DISP_REP_EDITINPLACEPROFILE
  2
AecDbDispRepEditInPlaceProfile
  3
AecBase70|Product Desc: Autodesk Architectural Desktop 2007 |Company: Autodesk,Inc. |WEB Address: www.autodesk.com
 90
      129
 91
        1
280
     0
281
     0
  0
CLASS
  1
AEC_DISP_PROPS_EDITINPLACEPROFILE_MODEL
  2
AecDbDispPropsEditInPlaceProfile
  3
AecBase70|Product Desc: Autodesk Architectural Desktop 2007 |Company: Autodesk,Inc. |WEB Address: www.autodesk.com
 90
      129
 91
        1
280
     0
281
     0
  0
CLASS
  1
AEC_DISP_REP_CLIP_VOLUME_PLAN
  2
AecDbDispRepClipVolPlan
  3
AecBase70|Product Desc: Autodesk Architectural Desktop 2007 |Company: Autodesk,Inc. |WEB Address: www.autodesk.com
 90
      129
 91
        1
280
     0
281
     0
  0
CLASS
  1
AEC_DISP_REP_ENT_REF
  2
AecDbDispRepEntRef
  3
AecBase70|Product Desc: Autodesk Architectural Desktop 2007 |Company: Autodesk,Inc. |WEB Address: www.autodesk.com
 90
      129
 91
        1
280
     0
281
     0
  0
CLASS
  1
AEC_DISP_PROPS_ENT_REF
  2
AecDbDispPropsEntRef
  3
AecBase70|Product Desc: Autodesk Architectural Desktop 2007 |Company: Autodesk,Inc. |WEB Address: www.autodesk.com
 90
      129
 91
        1
280
     0
281
     0
  0
CLASS
  1
AEC_DISP_REP_LAYOUT_CURVE
  2
AecDbDispRepLayoutCurve
  3
AecBase70|Product Desc: Autodesk Architectural Desktop 2007 |Company: Autodesk,Inc. |WEB Address: www.autodesk.com
 90
      129
 91
        1
280
     0
281
     0
  0
CLASS
  1
AEC_DISP_PROPS_LAYOUT_CURVE
  2
AecDbDispPropsLayoutCurve
  3
AecBase70|Product Desc: Autodesk Architectural Desktop 2007 |Company: Autodesk,Inc. |WEB Address: www.autodesk.com
 90
      129
 91
        1
280
     0
281
     0
  0
CLASS
  1
AEC_DISP_REP_CLIP_VOLUME_RESULT_SUBDIV
  2
AecDbDispRepClipVolResSubDiv
  3
AecBase70|Product Desc: Autodesk Architectural Desktop 2007 |Company: Autodesk,Inc. |WEB Address: www.autodesk.com
 90
      129
 91
        1
280
     0
281
     0
  0
CLASS
  1
AEC_DISP_PROPS_CLIP_VOLUME_RESULT
  2
AecDbDispPropsClipVolResSubDiv
  3
AecBase70|Product Desc: Autodesk Architectural Desktop 2007 |Company: Autodesk,Inc. |WEB Address: www.autodesk.com
 90
      129
 91
        2
280
     0
281
     0
  0
CLASS
  1
AEC_DISP_REP_LAYOUT_GRID3D
  2
AecDbDispRepLayoutGrid3d
  3
AecBase70|Product Desc: Autodesk Architectural Desktop 2007 |Company: Autodesk,Inc. |WEB Address: www.autodesk.com
 90
      129
 91
        1
280
     0
281
     0
  0
CLASS
  1
AEC_DISP_PROPS_LAYOUT_GRID3D
  2
AecDbDispPropsLayoutGrid3d
  3
AecBase70|Product Desc: Autodesk Architectural Desktop 2007 |Company: Autodesk,Inc. |WEB Address: www.autodesk.com
 90
      129
 91
        1
280
     0
281
     0
  0
CLASS
  1
AEC_DISP_REP_MVBLOCK_REF_MODEL
  2
AecDbDispRepMvBlockRefModel
  3
AecBase70|Product Desc: Autodesk Architectural Desktop 2007 |Company: Autodesk,Inc. |WEB Address: www.autodesk.com
 90
      129
 91
        1
280
     0
281
     0
  0
CLASS
  1
AEC_DISP_REP_MASKBLOCK_REF
  2
AecDbDispRepMaskBlockRef
  3
AecBase70|Product Desc: Autodesk Architectural Desktop 2007 |Company: Autodesk,Inc. |WEB Address: www.autodesk.com
 90
      129
 91
        1
280
     0
281
     0
  0
CLASS
  1
AEC_DISP_PROPS_MASKBLOCK
  2
AecDbDispPropsMaskBlock
  3
AecBase70|Product Desc: Autodesk Architectural Desktop 2007 |Company: Autodesk,Inc. |WEB Address: www.autodesk.com
 90
      129
 91
        2
280
     0
281
     0
  0
CLASS
  1
AEC_DISP_REP_CLIP_VOLUME_RESULT
  2
AecDbDispRepClipVolResult
  3
AecBase70|Product Desc: Autodesk Architectural Desktop 2007 |Company: Autodesk,Inc. |WEB Address: www.autodesk.com
 90
      129
 91
        1
280
     0
281
     0
  0
CLASS
  1
AEC_DISP_REP_MVBLOCK_REF
  2
AecDbDispRepMvBlockRef
  3
AecBase70|Product Desc: Autodesk Architectural Desktop 2007 |Company: Autodesk,Inc. |WEB Address: www.autodesk.com
 90
      129
 91
        2
280
     0
281
     0
  0
CLASS
  1
AEC_DISP_REP_POLYGON_MODEL
  2
AecDbDispRepPolygonModel
  3
AecBase70|Product Desc: Autodesk Architectural Desktop 2007 |Company: Autodesk,Inc. |WEB Address: www.autodesk.com
 90
      129
 91
        1
280
     0
281
     0
  0
CLASS
  1
AEC_DISP_PROPS_POLYGON_MODEL
  2
AecDbDispPropsPolygonModel
  3
AecBase70|Product Desc: Autodesk Architectural Desktop 2007 |Company: Autodesk,Inc. |WEB Address: www.autodesk.com
 90
      129
 91
        1
280
     0
281
     0
  0
CLASS
  1
AEC_DISP_REP_POLYGON_TRUECOLOUR
  2
AecDbDispRepPolygonTrueColour
  3
AecBase70|Product Desc: Autodesk Architectural Desktop 2007 |Company: Autodesk,Inc. |WEB Address: www.autodesk.com
 90
      129
 91
        1
280
     0
281
     0
  0
CLASS
  1
AEC_DISP_PROPS_POLYGON_TRUECOLOUR
  2
AecDbDispPropsPolygonTrueColour
  3
AecBase70|Product Desc: Autodesk Architectural Desktop 2007 |Company: Autodesk,Inc. |WEB Address: www.autodesk.com
 90
      129
 91
        1
280
     0
281
     0
  0
CLASS
  1
AEC_DISP_REP_MATERIAL
  2
AecDbDispRepMaterial
  3
AecBase70|Product Desc: Autodesk Architectural Desktop 2007 |Company: Autodesk,Inc. |WEB Address: www.autodesk.com
 90
      129
 91
        2
280
     0
281
     0
  0
CLASS
  1
AEC_DISP_PROPS_MATERIAL
  2
AecDbDispPropsMaterial
  3
AecBase70|Product Desc: Autodesk Architectural Desktop 2007 |Company: Autodesk,Inc. |WEB Address: www.autodesk.com
 90
      129
 91
        2
280
     0
281
     0
  0
CLASS
  1
AEC_DISP_REP_DISPLAYTHEME
  2
AecDbDispRepDisplayTheme
  3
AecBase70|Product Desc: Autodesk Architectural Desktop 2007 |Company: Autodesk,Inc. |WEB Address: www.autodesk.com
 90
      129
 91
        1
280
     0
281
     0
  0
CLASS
  1
AEC_DISP_PROPS_DISPLAYTHEME
  2
AecDbDispPropsDisplayTheme
  3
AecBase70|Product Desc: Autodesk Architectural Desktop 2007 |Company: Autodesk,Inc. |WEB Address: www.autodesk.com
 90
      129
 91
        1
280
     0
281
     0
  0
CLASS
  1
AEC_DISP_REP_SLICE
  2
AecDbDispRepSlice
  3
AecBase70|Product Desc: Autodesk Architectural Desktop 2007 |Company: Autodesk,Inc. |WEB Address: www.autodesk.com
 90
      129
 91
        1
280
     0
281
     0
  0
CLASS
  1
AEC_DISP_PROPS_SLICE
  2
AecDbDispPropsSlice
  3
AecBase70|Product Desc: Autodesk Architectural Desktop 2007 |Company: Autodesk,Inc. |WEB Address: www.autodesk.com
 90
      129
 91
        1
280
     0
281
     0
  0
CLASS
  1
AEC_DISP_REP_MASS_ELEM_SCHEM
  2
AecDbDispRepMassElemSchem
  3
AecBaseEx70|Product Desc: Autodesk Architectural Desktop 2007 |Company: Autodesk,Inc. |WEB Address: www.autodesk.com
 90
      129
 91
        1
280
     0
281
     0
  0
CLASS
  1
AEC_DISP_PROPS_MASS_ELEM_MODEL
  2
AecDbDispPropsMassElem
  3
AecBaseEx70|Product Desc: Autodesk Architectural Desktop 2007 |Company: Autodesk,Inc. |WEB Address: www.autodesk.com
 90
      129
 91
        3
280
     0
281
     0
  0
CLASS
  1
AEC_DISP_REP_MASS_GROUP_PLAN
  2
AecDbDispRepMassGroupPlan
  3
AecBaseEx70|Product Desc: Autodesk Architectural Desktop 2007 |Company: Autodesk,Inc. |WEB Address: www.autodesk.com
 90
      129
 91
        1
280
     0
281
     0
  0
CLASS
  1
AEC_DISP_PROPS_MASS_GROUP
  2
AecDbDispPropsMassGroup
  3
AecBaseEx70|Product Desc: Autodesk Architectural Desktop 2007 |Company: Autodesk,Inc. |WEB Address: www.autodesk.com
 90
      129
 91
        3
280
     0
281
     0
  0
CLASS
  1
AEC_DISP_REP_MASS_GROUP_MODEL
  2
AecDbDispRepMassGroupModel
  3
AecBaseEx70|Product Desc: Autodesk Architectural Desktop 2007 |Company: Autodesk,Inc. |WEB Address: www.autodesk.com
 90
      129
 91
        1
280
     0
281
     0
  0
CLASS
  1
AEC_DISP_REP_MASS_ELEM_MODEL
  2
AecDbDispRepMassElemModel
  3
AecBaseEx70|Product Desc: Autodesk Architectural Desktop 2007 |Company: Autodesk,Inc. |WEB Address: www.autodesk.com
 90
      129
 91
        1
280
     0
281
     0
  0
CLASS
  1
AEC_DISP_REP_WINDOW_ELEV
  2
AecDbDispRepWindowElev
  3
AecArchBase70|Product Desc: Autodesk Architectural Desktop 2007 |Company: Autodesk,Inc. |WEB Address: www.autodesk.com
 90
      129
 91
        1
280
     0
281
     0
  0
CLASS
  1
AEC_DISP_PROPS_WINDOW
  2
AecDbDispPropsWindow
  3
AecArchBase70|Product Desc: Autodesk Architectural Desktop 2007 |Company: Autodesk,Inc. |WEB Address: www.autodesk.com
 90
      129
 91
        4
280
     0
281
     0
  0
CLASS
  1
AEC_DISP_REP_WALL_MODEL
  2
AecDbDispRepWallModel
  3
AecArchBase70|Product Desc: Autodesk Architectural Desktop 2007 |Company: Autodesk,Inc. |WEB Address: www.autodesk.com
 90
      129
 91
        1
280
     0
281
     0
  0
CLASS
  1
AEC_DISP_PROPS_WALL_MODEL
  2
AecDbDispPropsWallModel
  3
AecArchBase70|Product Desc: Autodesk Architectural Desktop 2007 |Company: Autodesk,Inc. |WEB Address: www.autodesk.com
 90
      129
 91
        1
280
     0
281
     0
  0
CLASS
  1
AEC_DISP_REP_WINDOW_PLAN_50
  2
AecDbDispRepWindowPlan50
  3
AecArchBase70|Product Desc: Autodesk Architectural Desktop 2007 |Company: Autodesk,Inc. |WEB Address: www.autodesk.com
 90
      129
 91
        1
280
     0
281
     0
  0
CLASS
  1
AEC_DISP_PROPS_WINDOW_PLAN_50
  2
AecDbDispPropsWindowPlan50
  3
AecArchBase70|Product Desc: Autodesk Architectural Desktop 2007 |Company: Autodesk,Inc. |WEB Address: www.autodesk.com
 90
      129
 91
        1
280
     0
281
     0
  0
CLASS
  1
AEC_DISP_REP_WALL_RCP
  2
AecDbDispRepWallRcp
  3
AecArchBase70|Product Desc: Autodesk Architectural Desktop 2007 |Company: Autodesk,Inc. |WEB Address: www.autodesk.com
 90
      129
 91
        1
280
     0
281
     0
  0
CLASS
  1
AEC_DISP_PROPS_WALL_PLAN
  2
AecDbDispPropsWallPlan
  3
AecArchBase70|Product Desc: Autodesk Architectural Desktop 2007 |Company: Autodesk,Inc. |WEB Address: www.autodesk.com
 90
      129
 91
        4
280
     0
281
     0
  0
CLASS
  1
AEC_DISP_REP_WINDOW_PLAN
  2
AecDbDispRepWindowPlan
  3
AecArchBase70|Product Desc: Autodesk Architectural Desktop 2007 |Company: Autodesk,Inc. |WEB Address: www.autodesk.com
 90
      129
 91
        1
280
     0
281
     0
  0
CLASS
  1
AEC_DISP_REP_WINDOW_PLAN_100
  2
AecDbDispRepWindowPlan100
  3
AecArchBase70|Product Desc: Autodesk Architectural Desktop 2007 |Company: Autodesk,Inc. |WEB Address: www.autodesk.com
 90
      129
 91
        1
280
     0
281
     0
  0
CLASS
  1
AEC_DISP_PROPS_WINDOW_PLAN_100
  2
AecDbDispPropsWindowPlan100
  3
AecArchBase70|Product Desc: Autodesk Architectural Desktop 2007 |Company: Autodesk,Inc. |WEB Address: www.autodesk.com
 90
      129
 91
        1
280
     0
281
     0
  0
CLASS
  1
AEC_DISP_REP_WINDOW_SILL_PLAN
  2
AecDbDispRepWindowSillPlan
  3
AecArchBase70|Product Desc: Autodesk Architectural Desktop 2007 |Company: Autodesk,Inc. |WEB Address: www.autodesk.com
 90
      129
 91
        1
280
     0
281
     0
  0
CLASS
  1
AEC_DISP_PROPS_WINDOW_SILL_PLAN
  2
AecDbDispPropsWindowSillPlan
  3
AecArchBase70|Product Desc: Autodesk Architectural Desktop 2007 |Company: Autodesk,Inc. |WEB Address: www.autodesk.com
 90
      129
 91
        1
280
     0
281
     0
  0
CLASS
  1
AEC_DISP_REP_WINDOW_MODEL
  2
AecDbDispRepWindowModel
  3
AecArchBase70|Product Desc: Autodesk Architectural Desktop 2007 |Company: Autodesk,Inc. |WEB Address: www.autodesk.com
 90
      129
 91
        1
280
     0
281
     0
  0
CLASS
  1
AEC_DISP_REP_STAIR_RCP
  2
AecDbDispRepStairRcp
  3
AecArchBase70|Product Desc: Autodesk Architectural Desktop 2007 |Company: Autodesk,Inc. |WEB Address: www.autodesk.com
 90
      129
 91
        1
280
     0
281
     0
  0
CLASS
  1
AEC_DISP_PROPS_STAIR_PLAN
  2
AecDbDispPropsStairPlan
  3
AecArchBase70|Product Desc: Autodesk Architectural Desktop 2007 |Company: Autodesk,Inc. |WEB Address: www.autodesk.com
 90
      129
 91
        2
280
     0
281
     0
  0
CLASS
  1
AEC_DISP_REP_STAIR_PLAN_OVERLAPPING
  2
AecDbDispRepStairPlanOverlapping
  3
AecArchBase70|Product Desc: Autodesk Architectural Desktop 2007 |Company: Autodesk,Inc. |WEB Address: www.autodesk.com
 90
      129
 91
        1
280
     0
281
     0
  0
CLASS
  1
AEC_DISP_PROPS_STAIR_PLAN_OVERLAPPING
  2
AecDbDispPropsStairPlanOverlapping
  3
AecArchBase70|Product Desc: Autodesk Architectural Desktop 2007 |Company: Autodesk,Inc. |WEB Address: www.autodesk.com
 90
      129
 91
        1
280
     0
281
     0
  0
CLASS
  1
AEC_DISP_REP_WINDOWASSEMBLY_SILL_PLAN
  2
AecDbDispRepWindowAssemblySillPlan
  3
AecArchBase70|Product Desc: Autodesk Architectural Desktop 2007 |Company: Autodesk,Inc. |WEB Address: www.autodesk.com
 90
      129
 91
        1
280
     0
281
     0
  0
CLASS
  1
AEC_DISP_PROPS_WINDOW_ASSEMBLY_SILL_PLAN
  2
AecDbDispPropsWindowAssemblySillPlan
  3
AecArchBase70|Product Desc: Autodesk Architectural Desktop 2007 |Company: Autodesk,Inc. |WEB Address: www.autodesk.com
 90
      129
 91
        1
280
     0
281
     0
  0
CLASS
  1
AEC_DISP_REP_WALL_GRAPH
  2
AecDbDispRepWallGraph
  3
AecArchBase70|Product Desc: Autodesk Architectural Desktop 2007 |Company: Autodesk,Inc. |WEB Address: www.autodesk.com
 90
      129
 91
        1
280
     0
281
     0
  0
CLASS
  1
AEC_DISP_PROPS_WALL_GRAPH
  2
AecDbDispPropsWallGraph
  3
AecArchBase70|Product Desc: Autodesk Architectural Desktop 2007 |Company: Autodesk,Inc. |WEB Address: www.autodesk.com
 90
      129
 91
        1
280
     0
281
     0
  0
CLASS
  1
AEC_DISP_REP_WALL_SCHEM
  2
AecDbDispRepWallSchem
  3
AecArchBase70|Product Desc: Autodesk Architectural Desktop 2007 |Company: Autodesk,Inc. |WEB Address: www.autodesk.com
 90
      129
 91
        1
280
     0
281
     0
  0
CLASS
  1
AEC_DISP_PROPS_WALL_SCHEM
  2
AecDbDispPropsWallSchem
  3
AecArchBase70|Product Desc: Autodesk Architectural Desktop 2007 |Company: Autodesk,Inc. |WEB Address: www.autodesk.com
 90
      129
 91
        1
280
     0
281
     0
  0
CLASS
  1
AEC_DISP_REP_WINDOW_ASSEMBLY_MODEL
  2
AecDbDispRepWindowAssemblyModel
  3
AecArchBase70|Product Desc: Autodesk Architectural Desktop 2007 |Company: Autodesk,Inc. |WEB Address: www.autodesk.com
 90
      129
 91
        1
280
     0
281
     0
  0
CLASS
  1
AEC_DISP_PROPS_GRID_ASSEMBLY_MODEL
  2
AecDbDispPropsGridAssemblyModel
  3
AecArchBase70|Product Desc: Autodesk Architectural Desktop 2007 |Company: Autodesk,Inc. |WEB Address: www.autodesk.com
 90
      129
 91
        3
280
     0
281
     0
  0
CLASS
  1
AEC_DISP_REP_WINDOW_RCP
  2
AecDbDispRepWindowRcp
  3
AecArchBase70|Product Desc: Autodesk Architectural Desktop 2007 |Company: Autodesk,Inc. |WEB Address: www.autodesk.com
 90
      129
 91
        1
280
     0
281
     0
  0
CLASS
  1
AEC_DISP_REP_WINDOW_NOMINAL
  2
AecDbDispRepWindowNominal
  3
AecArchBase70|Product Desc: Autodesk Architectural Desktop 2007 |Company: Autodesk,Inc. |WEB Address: www.autodesk.com
 90
      129
 91
        1
280
     0
281
     0
  0
CLASS
  1
AEC_DISP_PROPS_WINDOW_NOMINAL
  2
AecDbDispPropsWindowNominal
  3
AecArchBase70|Product Desc: Autodesk Architectural Desktop 2007 |Company: Autodesk,Inc. |WEB Address: www.autodesk.com
 90
      129
 91
        1
280
     0
281
     0
  0
CLASS
  1
AEC_DISP_REP_BDG_SECTIONLINE_PLAN
  2
AecDbDispRepBdgElevLinePlan
  3
AecArchBase70|Product Desc: Autodesk Architectural Desktop 2007 |Company: Autodesk,Inc. |WEB Address: www.autodesk.com
 90
      129
 91
        1
280
     0
281
     0
  0
CLASS
  1
AEC_AECDBDISPREPCEILINGGRIDPLAN100
  2
AecDbDispRepCeilingGridPlan100
  3
AecArchBase70|Product Desc: Autodesk Architectural Desktop 2007 |Company: Autodesk,Inc. |WEB Address: www.autodesk.com
 90
      129
 91
        1
280
     0
281
     0
  0
CLASS
  1
AEC_AECDBDISPREPBDGELEVLINEPLAN100
  2
AecDbDispRepBdgElevLinePlan100
  3
AecArchBase70|Product Desc: Autodesk Architectural Desktop 2007 |Company: Autodesk,Inc. |WEB Address: www.autodesk.com
 90
      129
 91
        1
280
     0
281
     0
  0
CLASS
  1
AEC_AECDBDISPREPBDGSECTIONLINEPLAN100
  2
AecDbDispRepBdgSectionLinePlan100
  3
AecArchBase70|Product Desc: Autodesk Architectural Desktop 2007 |Company: Autodesk,Inc. |WEB Address: www.autodesk.com
 90
      129
 91
        1
280
     0
281
     0
  0
CLASS
  1
AEC_DISP_REP_CURTAIN_WALL_LAYOUT_PLAN
  2
AecDbDispRepCurtainWallLayoutPlan
  3
AecArchBase70|Product Desc: Autodesk Architectural Desktop 2007 |Company: Autodesk,Inc. |WEB Address: www.autodesk.com
 90
      129
 91
        1
280
     0
281
     0
  0
CLASS
  1
AEC_DISP_PROPS_GRID_ASSEMBLY_PLAN
  2
AecDbDispPropsGridAssemblyPlan
  3
AecArchBase70|Product Desc: Autodesk Architectural Desktop 2007 |Company: Autodesk,Inc. |WEB Address: www.autodesk.com
 90
      129
 91
        9
280
     0
281
     0
  0
CLASS
  1
AEC_DISP_REP_CEILING_GRID
  2
AecDbDispRepCeilingGrid
  3
AecArchBase70|Product Desc: Autodesk Architectural Desktop 2007 |Company: Autodesk,Inc. |WEB Address: www.autodesk.com
 90
      893
 91
        1
280
     0
281
     0
  0
CLASS
  1
AEC_AECDBDISPREPCOLUMNGRIDPLAN100
  2
AecDbDispRepColumnGridPlan100
  3
AecArchBase70|Product Desc: Autodesk Architectural Desktop 2007 |Company: Autodesk,Inc. |WEB Address: www.autodesk.com
 90
      129
 91
        1
280
     0
281
     0
  0
CLASS
  1
AEC_DISP_REP_CURTAIN_WALL_UNIT_PLAN
  2
AecDbDispRepCurtainWallUnitPlan
  3
AecArchBase70|Product Desc: Autodesk Architectural Desktop 2007 |Company: Autodesk,Inc. |WEB Address: www.autodesk.com
 90
      129
 91
        1
280
     0
281
     0
  0
CLASS
  1
AEC_AECDBDISPREPCURTAINWALLUNITPLAN100
  2
AecDbDispRepCurtainWallUnitPlan100
  3
AecArchBase70|Product Desc: Autodesk Architectural Desktop 2007 |Company: Autodesk,Inc. |WEB Address: www.autodesk.com
 90
      129
 91
        1
280
     0
281
     0
  0
CLASS
  1
AEC_DISP_REP_BDG_SECTIONLINE_PLAN
  2
AecDbDispRepBdgSectionLinePlan
  3
AecArchBase70|Product Desc: Autodesk Architectural Desktop 2007 |Company: Autodesk,Inc. |WEB Address: www.autodesk.com
 90
      129
 91
        1
280
     0
281
     0
  0
CLASS
  1
AEC_DISP_REP_COLUMN_GRID
  2
AecDbDispRepColumnGrid
  3
AecArchBase70|Product Desc: Autodesk Architectural Desktop 2007 |Company: Autodesk,Inc. |WEB Address: www.autodesk.com
 90
      129
 91
        1
280
     0
281
     0
  0
CLASS
  1
AEC_AECDBDISPREPCURTAINWALLLAYOUTPLAN100
  2
AecDbDispRepCurtainWallLayoutPlan100
  3
AecArchBase70|Product Desc: Autodesk Architectural Desktop 2007 |Company: Autodesk,Inc. |WEB Address: www.autodesk.com
 90
      129
 91
        1
280
     0
281
     0
  0
CLASS
  1
AEC_AECDBDISPREPMVBLOCKREFPLAN100
  2
AecDbDispRepMvBlockRefPlan100
  3
AecArchBase70|Product Desc: Autodesk Architectural Desktop 2007 |Company: Autodesk,Inc. |WEB Address: www.autodesk.com
 90
      129
 91
        1
280
     0
281
     0
  0
CLASS
  1
AEC_DISP_REP_ROOFSLAB_PLAN
  2
AecDbDispRepRoofSlabPlan
  3
AecArchBase70|Product Desc: Autodesk Architectural Desktop 2007 |Company: Autodesk,Inc. |WEB Address: www.autodesk.com
 90
      129
 91
        1
280
     0
281
     0
  0
CLASS
  1
AEC_DISP_PROPS_ROOFSLAB_PLAN
  2
AecDbDispPropsRoofSlabPlan
  3
AecArchBase70|Product Desc: Autodesk Architectural Desktop 2007 |Company: Autodesk,Inc. |WEB Address: www.autodesk.com
 90
      129
 91
        3
280
     0
281
     0
  0
CLASS
  1
AEC_DISP_REP_ROOF_PLAN
  2
AecDbDispRepRoofPlan
  3
AecArchBase70|Product Desc: Autodesk Architectural Desktop 2007 |Company: Autodesk,Inc. |WEB Address: www.autodesk.com
 90
      129
 91
        1
280
     0
281
     0
  0
CLASS
  1
AEC_DISP_PROPS_ROOF
  2
AecDbDispPropsRoof
  3
AecArchBase70|Product Desc: Autodesk Architectural Desktop 2007 |Company: Autodesk,Inc. |WEB Address: www.autodesk.com
 90
      129
 91
        5
280
     0
281
     0
  0
CLASS
  1
AEC_AECDBDISPREPSLABPLAN100
  2
AecDbDispRepSlabPlan100
  3
AecArchBase70|Product Desc: Autodesk Architectural Desktop 2007 |Company: Autodesk,Inc. |WEB Address: www.autodesk.com
 90
      129
 91
        1
280
     0
281
     0
  0
CLASS
  1
AEC_DISP_PROPS_SLAB_PLAN
  2
AecDbDispPropsSlabPlan
  3
AecArchBase70|Product Desc: Autodesk Architectural Desktop 2007 |Company: Autodesk,Inc. |WEB Address: www.autodesk.com
 90
      129
 91
        3
280
     0
281
     0
  0
CLASS
  1
AEC_DISP_REP_SPACE_PLAN
  2
AecDbDispRepSpacePlan
  3
AecArchBase70|Product Desc: Autodesk Architectural Desktop 2007 |Company: Autodesk,Inc. |WEB Address: www.autodesk.com
 90
      129
 91
        1
280
     0
281
     0
  0
CLASS
  1
AEC_DISP_PROPS_SPACE_PLAN
  2
AecDbDispPropsSpacePlan
  3
AecArchBase70|Product Desc: Autodesk Architectural Desktop 2007 |Company: Autodesk,Inc. |WEB Address: www.autodesk.com
 90
      129
 91
        4
280
     0
281
     0
  0
CLASS
  1
AEC_AECDBDISPREPROOFSLABPLAN100
  2
AecDbDispRepRoofSlabPlan100
  3
AecArchBase70|Product Desc: Autodesk Architectural Desktop 2007 |Company: Autodesk,Inc. |WEB Address: www.autodesk.com
 90
      129
 91
        1
280
     0
281
     0
  0
CLASS
  1
AEC_AECDBDISPREPSPACEPLAN100
  2
AecDbDispRepSpacePlan100
  3
AecArchBase70|Product Desc: Autodesk Architectural Desktop 2007 |Company: Autodesk,Inc. |WEB Address: www.autodesk.com
 90
      129
 91
        1
280
     0
281
     0
  0
CLASS
  1
AEC_AECDBDISPREPWALLPLAN100
  2
AecDbDispRepWallPlan100
  3
AecArchBase70|Product Desc: Autodesk Architectural Desktop 2007 |Company: Autodesk,Inc. |WEB Address: www.autodesk.com
 90
      129
 91
        1
280
     0
281
     0
  0
CLASS
  1
AEC_DISP_REP_SLAB_PLAN
  2
AecDbDispRepSlabPlan
  3
AecArchBase70|Product Desc: Autodesk Architectural Desktop 2007 |Company: Autodesk,Inc. |WEB Address: www.autodesk.com
 90
      129
 91
        1
280
     0
281
     0
  0
CLASS
  1
AEC_DISP_REP_WALL_PLAN
  2
AecDbDispRepWallPlan
  3
AecArchBase70|Product Desc: Autodesk Architectural Desktop 2007 |Company: Autodesk,Inc. |WEB Address: www.autodesk.com
 90
      129
 91
        1
280
     0
281
     0
  0
CLASS
  1
AEC_AECDBDISPREPROOFPLAN100
  2
AecDbDispRepRoofPlan100
  3
AecArchBase70|Product Desc: Autodesk Architectural Desktop 2007 |Company: Autodesk,Inc. |WEB Address: www.autodesk.com
 90
      129
 91
        1
280
     0
281
     0
  0
CLASS
  1
AEC_AECDBDISPREPZONE100
  2
AecDbDispRepZonePlan100
  3
AecArchBase70|Product Desc: Autodesk Architectural Desktop 2007 |Company: Autodesk,Inc. |WEB Address: www.autodesk.com
 90
      129
 91
        1
280
     0
281
     0
  0
CLASS
  1
AEC_DISP_PROPS_ZONE
  2
AecDbDispPropsZone
  3
AecArchBase70|Product Desc: Autodesk Architectural Desktop 2007 |Company: Autodesk,Inc. |WEB Address: www.autodesk.com
 90
      129
 91
        3
280
     0
281
     0
  0
CLASS
  1
AEC_DISP_REP_ZONE
  2
AecDbDispRepZone
  3
AecArchBase70|Product Desc: Autodesk Architectural Desktop 2007 |Company: Autodesk,Inc. |WEB Address: www.autodesk.com
 90
      129
 91
        1
280
     0
281
     0
  0
CLASS
  1
AEC_AECDBDISPREPCURTAINWALLUNITPLAN50
  2
AecDbDispRepCurtainWallUnitPlan50
  3
AecArchBase70|Product Desc: Autodesk Architectural Desktop 2007 |Company: Autodesk,Inc. |WEB Address: www.autodesk.com
 90
      129
 91
        1
280
     0
281
     0
  0
CLASS
  1
AEC_AECDBDISPREPCOLUMNGRIDPLAN50
  2
AecDbDispRepColumnGridPlan50
  3
AecArchBase70|Product Desc: Autodesk Architectural Desktop 2007 |Company: Autodesk,Inc. |WEB Address: www.autodesk.com
 90
      129
 91
        1
280
     0
281
     0
  0
CLASS
  1
AEC_AECDBDISPREPBDGSECTIONLINEPLAN50
  2
AecDbDispRepBdgSectionLinePlan50
  3
AecArchBase70|Product Desc: Autodesk Architectural Desktop 2007 |Company: Autodesk,Inc. |WEB Address: www.autodesk.com
 90
      129
 91
        1
280
     0
281
     0
  0
CLASS
  1
AEC_AECDBDISPREPMVBLOCKREFPLAN50
  2
AecDbDispRepMvBlockRefPlan50
  3
AecArchBase70|Product Desc: Autodesk Architectural Desktop 2007 |Company: Autodesk,Inc. |WEB Address: www.autodesk.com
 90
      129
 91
        1
280
     0
281
     0
  0
CLASS
  1
AEC_DISP_REP_WINDOW_ASSEMBLY_PLAN
  2
AecDbDispRepWindowAssemblyPlan
  3
AecArchBase70|Product Desc: Autodesk Architectural Desktop 2007 |Company: Autodesk,Inc. |WEB Address: www.autodesk.com
 90
      129
 91
        1
280
     0
281
     0
  0
CLASS
  1
AEC_AECDBDISPREPWINDOWASSEMBLYPLAN100
  2
AecDbDispRepWindowAssemblyPlan100
  3
AecArchBase70|Product Desc: Autodesk Architectural Desktop 2007 |Company: Autodesk,Inc. |WEB Address: www.autodesk.com
 90
      129
 91
        1
280
     0
281
     0
  0
CLASS
  1
AEC_AECDBDISPREPCEILINGGRIDPLAN50
  2
AecDbDispRepCeilingGridPlan50
  3
AecArchBase70|Product Desc: Autodesk Architectural Desktop 2007 |Company: Autodesk,Inc. |WEB Address: www.autodesk.com
 90
      129
 91
        1
280
     0
281
     0
  0
CLASS
  1
AEC_AECDBDISPREPROOFPLAN50
  2
AecDbDispRepRoofPlan50
  3
AecArchBase70|Product Desc: Autodesk Architectural Desktop 2007 |Company: Autodesk,Inc. |WEB Address: www.autodesk.com
 90
      129
 91
        1
280
     0
281
     0
  0
CLASS
  1
AEC_AECDBDISPREPSLABPLAN50
  2
AecDbDispRepSlabPlan50
  3
AecArchBase70|Product Desc: Autodesk Architectural Desktop 2007 |Company: Autodesk,Inc. |WEB Address: www.autodesk.com
 90
      129
 91
        1
280
     0
281
     0
  0
CLASS
  1
AEC_AECDBDISPREPBDGELEVLINEPLAN50
  2
AecDbDispRepBdgElevLinePlan50
  3
AecArchBase70|Product Desc: Autodesk Architectural Desktop 2007 |Company: Autodesk,Inc. |WEB Address: www.autodesk.com
 90
      129
 91
        1
280
     0
281
     0
  0
CLASS
  1
AEC_AECDBDISPREPCURTAINWALLLAYOUTPLAN50
  2
AecDbDispRepCurtainWallLayoutPlan50
  3
AecArchBase70|Product Desc: Autodesk Architectural Desktop 2007 |Company: Autodesk,Inc. |WEB Address: www.autodesk.com
 90
      129
 91
        1
280
     0
281
     0
  0
CLASS
  1
AEC_AECDBDISPREPROOFSLABPLAN50
  2
AecDbDispRepRoofSlabPlan50
  3
AecArchBase70|Product Desc: Autodesk Architectural Desktop 2007 |Company: Autodesk,Inc. |WEB Address: www.autodesk.com
 90
      129
 91
        1
280
     0
281
     0
  0
CLASS
  1
AEC_AECDBDISPREPWALLPLAN50
  2
AecDbDispRepWallPlan50
  3
AecArchBase70|Product Desc: Autodesk Architectural Desktop 2007 |Company: Autodesk,Inc. |WEB Address: www.autodesk.com
 90
      129
 91
        1
280
     0
281
     0
  0
CLASS
  1
AEC_AECDBDISPREPSPACEPLAN50
  2
AecDbDispRepSpacePlan50
  3
AecArchBase70|Product Desc: Autodesk Architectural Desktop 2007 |Company: Autodesk,Inc. |WEB Address: www.autodesk.com
 90
      129
 91
        1
280
     0
281
     0
  0
CLASS
  1
AEC_AECDBDISPREPZONE50
  2
AecDbDispRepZonePlan50
  3
AecArchBase70|Product Desc: Autodesk Architectural Desktop 2007 |Company: Autodesk,Inc. |WEB Address: www.autodesk.com
 90
      129
 91
        1
280
     0
281
     0
  0
CLASS
  1
AEC_AECDBDISPREPWINDOWASSEMBLYPLAN50
  2
AecDbDispRepWindowAssemblyPlan50
  3
AecArchBase70|Product Desc: Autodesk Architectural Desktop 2007 |Company: Autodesk,Inc. |WEB Address: www.autodesk.com
 90
      129
 91
        1
280
     0
281
     0
  0
CLASS
  1
AEC_DISP_REP_ANCHOR_BUB_TO_GRID
  2
AecDbDispRepAnchorBubToGrid
  3
AecArchBase70|Product Desc: Autodesk Architectural Desktop 2007 |Company: Autodesk,Inc. |WEB Address: www.autodesk.com
 90
      129
 91
        1
280
     0
281
     0
  0
CLASS
  1
AEC_DISP_REP_CEILING_GRID_RCP
  2
AecDbDispRepCeilingGridRcp
  3
AecArchBase70|Product Desc: Autodesk Architectural Desktop 2007 |Company: Autodesk,Inc. |WEB Address: www.autodesk.com
 90
      129
 91
        1
280
     0
281
     0
  0
CLASS
  1
AEC_DISP_REP_ANCHOR_BUB_TO_GRID_RCP
  2
AecDbDispRepAnchorBubToGridRcp
  3
AecArchBase70|Product Desc: Autodesk Architectural Desktop 2007 |Company: Autodesk,Inc. |WEB Address: www.autodesk.com
 90
      129
 91
        1
280
     0
281
     0
  0
CLASS
  1
AEC_DISP_REP_CURTAIN_WALL_UNIT_MODEL
  2
AecDbDispRepCurtainWallUnitModel
  3
AecArchBase70|Product Desc: Autodesk Architectural Desktop 2007 |Company: Autodesk,Inc. |WEB Address: www.autodesk.com
 90
      129
 91
        1
280
     0
281
     0
  0
CLASS
  1
AEC_DB_DISP_REP_DIM_GROUP_PLAN100
  2
AecDbDispRepDimGroupPlan100
  3
AecArchBase70|Product Desc: Autodesk Architectural Desktop 2007 |Company: Autodesk,Inc. |WEB Address: www.autodesk.com
 90
      129
 91
        1
280
     0
281
     0
  0
CLASS
  1
AEC_DISP_PROPS_DIM
  2
AecDbDispPropsDimGroup
  3
AecArchBase70|Product Desc: Autodesk Architectural Desktop 2007 |Company: Autodesk,Inc. |WEB Address: www.autodesk.com
 90
      129
 91
        3
280
     0
281
     0
  0
CLASS
  1
AEC_DISP_REP_BDG_ELEVLINE_RCP
  2
AecDbDispRepBdgElevLineRcp
  3
AecArchBase70|Product Desc: Autodesk Architectural Desktop 2007 |Company: Autodesk,Inc. |WEB Address: www.autodesk.com
 90
      129
 91
        1
280
     0
281
     0
  0
CLASS
  1
AEC_DISP_REP_BDG_SECTION_MODEL
  2
AecDbDispRepBdgSectionModel
  3
AecArchBase70|Product Desc: Autodesk Architectural Desktop 2007 |Company: Autodesk,Inc. |WEB Address: www.autodesk.com
 90
      129
 91
        1
280
     0
281
     0
  0
CLASS
  1
AEC_DISP_REP_BDG_SECTION_SUBDIV
  2
AecDbDispRepBdgSectionSubDiv
  3
AecArchBase70|Product Desc: Autodesk Architectural Desktop 2007 |Company: Autodesk,Inc. |WEB Address: www.autodesk.com
 90
      129
 91
        1
280
     0
281
     0
  0
CLASS
  1
AEC_DISP_REP_CEILING_GRID_MODEL
  2
AecDbDispRepCeilingGridModel
  3
AecArchBase70|Product Desc: Autodesk Architectural Desktop 2007 |Company: Autodesk,Inc. |WEB Address: www.autodesk.com
 90
      129
 91
        1
280
     0
281
     0
  0
CLASS
  1
AEC_DISP_REP_BDG_SECTIONLINE_MODEL
  2
AecDbDispRepBdgSectionLineModel
  3
AecArchBase70|Product Desc: Autodesk Architectural Desktop 2007 |Company: Autodesk,Inc. |WEB Address: www.autodesk.com
 90
      129
 91
        1
280
     0
281
     0
  0
CLASS
  1
AEC_DISP_REP_COLUMN_GRID_MODEL
  2
AecDbDispRepColumnGridModel
  3
AecArchBase70|Product Desc: Autodesk Architectural Desktop 2007 |Company: Autodesk,Inc. |WEB Address: www.autodesk.com
 90
      129
 91
        1
280
     0
281
     0
  0
CLASS
  1
AEC_DISP_REP_COLUMN_GRID_RCP
  2
AecDbDispRepColumnGridRcp
  3
AecArchBase70|Product Desc: Autodesk Architectural Desktop 2007 |Company: Autodesk,Inc. |WEB Address: www.autodesk.com
 90
      129
 91
        1
280
     0
281
     0
  0
CLASS
  1
AEC_DISP_REP_BDG_SECTIONLINE_RCP
  2
AecDbDispRepBdgSectionLineRcp
  3
AecArchBase70|Product Desc: Autodesk Architectural Desktop 2007 |Company: Autodesk,Inc. |WEB Address: www.autodesk.com
 90
      129
 91
        1
280
     0
281
     0
  0
CLASS
  1
AEC_DISP_REP_BDG_ELEVLINE_MODEL
  2
AecDbDispRepBdgElevLineModel
  3
AecArchBase70|Product Desc: Autodesk Architectural Desktop 2007 |Company: Autodesk,Inc. |WEB Address: www.autodesk.com
 90
      129
 91
        1
280
     0
281
     0
  0
CLASS
  1
AEC_DISP_REP_CURTAIN_WALL_LAYOUT_MODEL
  2
AecDbDispRepCurtainWallLayoutModel
  3
AecArchBase70|Product Desc: Autodesk Architectural Desktop 2007 |Company: Autodesk,Inc. |WEB Address: www.autodesk.com
 90
      129
 91
        1
280
     0
281
     0
  0
CLASS
  1
AEC_DISP_REP_ANCHOR_BUB_TO_GRID_MODEL
  2
AecDbDispRepAnchorBubToGridMdl
  3
AecArchBase70|Product Desc: Autodesk Architectural Desktop 2007 |Company: Autodesk,Inc. |WEB Address: www.autodesk.com
 90
      129
 91
        1
280
     0
281
     0
  0
CLASS
  1
AEC_DISP_REP_DOOR_THRESHOLD_SYMBOL_PLAN
  2
AecDbDispRepDoorThresholdSymbolPlan
  3
AecArchBase70|Product Desc: Autodesk Architectural Desktop 2007 |Company: Autodesk,Inc. |WEB Address: www.autodesk.com
 90
      129
 91
        1
280
     0
281
     0
  0
CLASS
  1
AEC_DISP_PROPS_DOOR_THRESHOLD_SYMBOL_PLAN
  2
AecDbDispPropsDoorThresholdSymbolPlan
  3
AecArchBase70|Product Desc: Autodesk Architectural Desktop 2007 |Company: Autodesk,Inc. |WEB Address: www.autodesk.com
 90
      129
 91
        1
280
     0
281
     0
  0
CLASS
  1
AEC_DISP_REP_DOOR_PLAN_HEKTO
  2
AecDbDispRepDoorPlanHekto
  3
AecArchBase70|Product Desc: Autodesk Architectural Desktop 2007 |Company: Autodesk,Inc. |WEB Address: www.autodesk.com
 90
      129
 91
        1
280
     0
281
     0
  0
CLASS
  1
AEC_DISP_PROPS_DOOR_PLAN_100
  2
AecDbDispPropsDoorPlan100
  3
AecArchBase70|Product Desc: Autodesk Architectural Desktop 2007 |Company: Autodesk,Inc. |WEB Address: www.autodesk.com
 90
      129
 91
        1
280
     0
281
     0
  0
CLASS
  1
AEC_DISPREPAECDBDISPREPMASSGROUPPLAN50
  2
AecDbDispRepMassGroupPlan50
  3
AecArchBase70|Product Desc: Autodesk Architectural Desktop 2007 |Company: Autodesk,Inc. |WEB Address: www.autodesk.com
 90
      129
 91
        1
280
     0
281
     0
  0
CLASS
  1
AEC_DISPROPSMASSGROUPPLANCOMMON
  2
AecDbDispPropsMassGroupPlanCommon
  3
AecArchBase70|Product Desc: Autodesk Architectural Desktop 2007 |Company: Autodesk,Inc. |WEB Address: www.autodesk.com
 90
      129
 91
        2
280
     0
281
     0
  0
CLASS
  1
AEC_DISP_REP_MASS_GROUP_RCP
  2
AecDbDispRepMassGroupRcp
  3
AecArchBase70|Product Desc: Autodesk Architectural Desktop 2007 |Company: Autodesk,Inc. |WEB Address: www.autodesk.com
 90
      129
 91
        1
280
     0
281
     0
  0
CLASS
  1
AEC_DB_DISP_REP_DIM_GROUP_PLAN50
  2
AecDbDispRepDimGroupPlan50
  3
AecArchBase70|Product Desc: Autodesk Architectural Desktop 2007 |Company: Autodesk,Inc. |WEB Address: www.autodesk.com
 90
      129
 91
        1
280
     0
281
     0
  0
CLASS
  1
AEC_DISP_REP_DOOR_MODEL
  2
AecDbDispRepDoorModel
  3
AecArchBase70|Product Desc: Autodesk Architectural Desktop 2007 |Company: Autodesk,Inc. |WEB Address: www.autodesk.com
 90
      129
 91
        1
280
     0
281
     0
  0
CLASS
  1
AEC_DISP_PROPS_DOOR
  2
AecDbDispPropsDoor
  3
AecArchBase70|Product Desc: Autodesk Architectural Desktop 2007 |Company: Autodesk,Inc. |WEB Address: www.autodesk.com
 90
      129
 91
        4
280
     0
281
     0
  0
CLASS
  1
AEC_DISP_REP_DOOR_PLAN_50
  2
AecDbDispRepDoorPlan50
  3
AecArchBase70|Product Desc: Autodesk Architectural Desktop 2007 |Company: Autodesk,Inc. |WEB Address: www.autodesk.com
 90
      129
 91
        1
280
     0
281
     0
  0
CLASS
  1
AEC_DISP_PROPS_DOOR_PLAN_50
  2
AecDbDispPropsDoorPlan50
  3
AecArchBase70|Product Desc: Autodesk Architectural Desktop 2007 |Company: Autodesk,Inc. |WEB Address: www.autodesk.com
 90
      129
 91
        1
280
     0
281
     0
  0
CLASS
  1
AEC_DISP_REP_DOOR_THRESHOLD_PLAN
  2
AecDbDispRepDoorThresholdPlan
  3
AecArchBase70|Product Desc: Autodesk Architectural Desktop 2007 |Company: Autodesk,Inc. |WEB Address: www.autodesk.com
 90
      129
 91
        1
280
     0
281
     0
  0
CLASS
  1
AEC_DISP_PROPS_DOOR_THRESHOLD_PLAN
  2
AecDbDispPropsDoorThresholdPlan
  3
AecArchBase70|Product Desc: Autodesk Architectural Desktop 2007 |Company: Autodesk,Inc. |WEB Address: www.autodesk.com
 90
      129
 91
        1
280
     0
281
     0
  0
CLASS
  1
AEC_DISP_REP_MASKBLOCK_REF_RCP
  2
AecDbDispRepMaskBlockRefRcp
  3
AecArchBase70|Product Desc: Autodesk Architectural Desktop 2007 |Company: Autodesk,Inc. |WEB Address: www.autodesk.com
 90
      129
 91
        1
280
     0
281
     0
  0
CLASS
  1
AEC_DISP_REP_DOOR_ELEV
  2
AecDbDispRepDoorElev
  3
AecArchBase70|Product Desc: Autodesk Architectural Desktop 2007 |Company: Autodesk,Inc. |WEB Address: www.autodesk.com
 90
      129
 91
        1
280
     0
281
     0
  0
CLASS
  1
AEC_DISPREPAECDBDISPREPMASSELEMPLAN50
  2
AecDbDispRepMassElemPlan50
  3
AecArchBase70|Product Desc: Autodesk Architectural Desktop 2007 |Company: Autodesk,Inc. |WEB Address: www.autodesk.com
 90
      129
 91
        1
280
     0
281
     0
  0
CLASS
  1
AEC_DISPROPSMASSELEMPLANCOMMON
  2
AecDbDispPropsMassElemPlanCommon
  3
AecArchBase70|Product Desc: Autodesk Architectural Desktop 2007 |Company: Autodesk,Inc. |WEB Address: www.autodesk.com
 90
      129
 91
        2
280
     0
281
     0
  0
CLASS
  1
AEC_DISP_REP_DOOR_NOMINAL
  2
AecDbDispRepDoorNominal
  3
AecArchBase70|Product Desc: Autodesk Architectural Desktop 2007 |Company: Autodesk,Inc. |WEB Address: www.autodesk.com
 90
      129
 91
        1
280
     0
281
     0
  0
CLASS
  1
AEC_DISP_PROPS_DOOR_NOMINAL
  2
AecDbDispPropsDoorNominal
  3
AecArchBase70|Product Desc: Autodesk Architectural Desktop 2007 |Company: Autodesk,Inc. |WEB Address: www.autodesk.com
 90
      129
 91
        1
280
     0
281
     0
  0
CLASS
  1
AEC_DISPREPAECDBDISPREPMASSELEMPLAN100
  2
AecDbDispRepMassElemPlan100
  3
AecArchBase70|Product Desc: Autodesk Architectural Desktop 2007 |Company: Autodesk,Inc. |WEB Address: www.autodesk.com
 90
      129
 91
        1
280
     0
281
     0
  0
CLASS
  1
AEC_DISP_REP_MASS_ELEM_RCP
  2
AecDbDispRepMassElemRcp
  3
AecArchBase70|Product Desc: Autodesk Architectural Desktop 2007 |Company: Autodesk,Inc. |WEB Address: www.autodesk.com
 90
      129
 91
        1
280
     0
281
     0
  0
CLASS
  1
AEC_DISP_REP_DOOR_PLAN
  2
AecDbDispRepDoorPlan
  3
AecArchBase70|Product Desc: Autodesk Architectural Desktop 2007 |Company: Autodesk,Inc. |WEB Address: www.autodesk.com
 90
      129
 91
        1
280
     0
281
     0
  0
CLASS
  1
AEC_DISP_REP_DOOR_RCP
  2
AecDbDispRepDoorRcp
  3
AecArchBase70|Product Desc: Autodesk Architectural Desktop 2007 |Company: Autodesk,Inc. |WEB Address: www.autodesk.com
 90
      129
 91
        1
280
     0
281
     0
  0
CLASS
  1
AEC_DISPREPAECDBDISPREPMASSGROUPPLAN100
  2
AecDbDispRepMassGroupPlan100
  3
AecArchBase70|Product Desc: Autodesk Architectural Desktop 2007 |Company: Autodesk,Inc. |WEB Address: www.autodesk.com
 90
      129
 91
        1
280
     0
281
     0
  0
CLASS
  1
AEC_DB_DISP_REP_DIM_GROUP_PLAN
  2
AecDbDispRepDimGroupPlan
  3
AecArchBase70|Product Desc: Autodesk Architectural Desktop 2007 |Company: Autodesk,Inc. |WEB Address: www.autodesk.com
 90
      129
 91
        1
280
     0
281
     0
  0
CLASS
  1
AEC_DISP_REP_OPENING_MODEL
  2
AecDbDispRepOpeningModel
  3
AecArchBase70|Product Desc: Autodesk Architectural Desktop 2007 |Company: Autodesk,Inc. |WEB Address: www.autodesk.com
 90
      129
 91
        1
280
     0
281
     0
  0
CLASS
  1
AEC_DISP_PROPS_OPENING
  2
AecDbDispPropsOpening
  3
AecArchBase70|Product Desc: Autodesk Architectural Desktop 2007 |Company: Autodesk,Inc. |WEB Address: www.autodesk.com
 90
      129
 91
        2
280
     0
281
     0
  0
CLASS
  1
AEC_DISPREPAECDBDISPREPOPENINGPLAN50
  2
AecDbDispRepOpeningPlan50
  3
AecArchBase70|Product Desc: Autodesk Architectural Desktop 2007 |Company: Autodesk,Inc. |WEB Address: www.autodesk.com
 90
      129
 91
        1
280
     0
281
     0
  0
CLASS
  1
AEC_DISPROPSOPENINGPLANCOMMONHATCHED
  2
AecDbDispPropsOpeningPlanCommonHatched
  3
AecArchBase70|Product Desc: Autodesk Architectural Desktop 2007 |Company: Autodesk,Inc. |WEB Address: www.autodesk.com
 90
      129
 91
        2
280
     0
281
     0
  0
CLASS
  1
AEC_DISPREPAECDBDISPREPOPENINGPLANREFLECTED
  2
AecDbDispRepOpeningPlanReflected
  3
AecArchBase70|Product Desc: Autodesk Architectural Desktop 2007 |Company: Autodesk,Inc. |WEB Address: www.autodesk.com
 90
      129
 91
        1
280
     0
281
     0
  0
CLASS
  1
AEC_DISPROPSOPENINGPLANCOMMON
  2
AecDbDispPropsOpeningPlanCommon
  3
AecArchBase70|Product Desc: Autodesk Architectural Desktop 2007 |Company: Autodesk,Inc. |WEB Address: www.autodesk.com
 90
      129
 91
        1
280
     0
281
     0
  0
CLASS
  1
AEC_DISP_REP_OPENING
  2
AecDbDispRepOpening
  3
AecArchBase70|Product Desc: Autodesk Architectural Desktop 2007 |Company: Autodesk,Inc. |WEB Address: www.autodesk.com
 90
      129
 91
        1
280
     0
281
     0
  0
CLASS
  1
AEC_DISP_REP_MVBLOCK_REF_RCP
  2
AecDbDispRepMvBlockRefRcp
  3
AecArchBase70|Product Desc: Autodesk Architectural Desktop 2007 |Company: Autodesk,Inc. |WEB Address: www.autodesk.com
 90
      129
 91
        1
280
     0
281
     0
  0
CLASS
  1
AEC_DISPREPAECDBDISPREPOPENINGPLAN100
  2
AecDbDispRepOpeningPlan100
  3
AecArchBase70|Product Desc: Autodesk Architectural Desktop 2007 |Company: Autodesk,Inc. |WEB Address: www.autodesk.com
 90
      129
 91
        1
280
     0
281
     0
  0
CLASS
  1
AEC_DISPREPAECDBDISPREPOPENINGSILLPLAN
  2
AecDbDispRepOpeningSillPlan
  3
AecArchBase70|Product Desc: Autodesk Architectural Desktop 2007 |Company: Autodesk,Inc. |WEB Address: www.autodesk.com
 90
      129
 91
        1
280
     0
281
     0
  0
CLASS
  1
AEC_DISPROPSOPENINGSILLPLAN
  2
AecDbDispPropsOpeningSillPlan
  3
AecArchBase70|Product Desc: Autodesk Architectural Desktop 2007 |Company: Autodesk,Inc. |WEB Address: www.autodesk.com
 90
      129
 91
        1
280
     0
281
     0
  0
CLASS
  1
AEC_DISP_REP_RAILING_PLAN
  2
AecDbDispRepRailingPlan
  3
AecArchBase70|Product Desc: Autodesk Architectural Desktop 2007 |Company: Autodesk,Inc. |WEB Address: www.autodesk.com
 90
      129
 91
        1
280
     0
281
     0
  0
CLASS
  1
AEC_DISP_PROPS_RAILING_PLAN
  2
AecDbDispPropsRailingPlan
  3
AecArchBase70|Product Desc: Autodesk Architectural Desktop 2007 |Company: Autodesk,Inc. |WEB Address: www.autodesk.com
 90
      129
 91
        1
280
     0
281
     0
  0
CLASS
  1
AEC_DISP_REP_ROOF_MODEL
  2
AecDbDispRepRoofModel
  3
AecArchBase70|Product Desc: Autodesk Architectural Desktop 2007 |Company: Autodesk,Inc. |WEB Address: www.autodesk.com
 90
      129
 91
        1
280
     0
281
     0
  0
CLASS
  1
AEC_DISP_REP_ROOF_RCP
  2
AecDbDispRepRoofRcp
  3
AecArchBase70|Product Desc: Autodesk Architectural Desktop 2007 |Company: Autodesk,Inc. |WEB Address: www.autodesk.com
 90
      129
 91
        1
280
     0
281
     0
  0
CLASS
  1
AEC_DISP_REP_RAILING_PLAN_100
  2
AecDbDispRepRailingPlan100
  3
AecArchBase70|Product Desc: Autodesk Architectural Desktop 2007 |Company: Autodesk,Inc. |WEB Address: www.autodesk.com
 90
      129
 91
        1
280
     0
281
     0
  0
CLASS
  1
AEC_DISP_ROPS_RAILING_PLAN_100
  2
AecDbDispPropsRailingPlan100
  3
AecArchBase70|Product Desc: Autodesk Architectural Desktop 2007 |Company: Autodesk,Inc. |WEB Address: www.autodesk.com
 90
      129
 91
        1
280
     0
281
     0
  0
CLASS
  1
AEC_DISP_REP_RAILING_PLAN_50
  2
AecDbDispRepRailingPlan50
  3
AecArchBase70|Product Desc: Autodesk Architectural Desktop 2007 |Company: Autodesk,Inc. |WEB Address: www.autodesk.com
 90
      129
 91
        1
280
     0
281
     0
  0
CLASS
  1
AEC_DISP_ROPS_RAILING_PLAN_50
  2
AecDbDispPropsRailingPlan50
  3
AecArchBase70|Product Desc: Autodesk Architectural Desktop 2007 |Company: Autodesk,Inc. |WEB Address: www.autodesk.com
 90
      129
 91
        1
280
     0
281
     0
  0
CLASS
  1
AEC_DISP_REP_RAILING_MODEL
  2
AecDbDispRepRailingModel
  3
AecArchBase70|Product Desc: Autodesk Architectural Desktop 2007 |Company: Autodesk,Inc. |WEB Address: www.autodesk.com
 90
      129
 91
        1
280
     0
281
     0
  0
CLASS
  1
AEC_DISP_PROPS_RAILING_MODEL
  2
AecDbDispPropsRailingModel
  3
AecArchBase70|Product Desc: Autodesk Architectural Desktop 2007 |Company: Autodesk,Inc. |WEB Address: www.autodesk.com
 90
      129
 91
        1
280
     0
281
     0
  0
CLASS
  1
AEC_DISP_REP_STAIR_MODEL
  2
AecDbDispRepStairModel
  3
AecArchBase70|Product Desc: Autodesk Architectural Desktop 2007 |Company: Autodesk,Inc. |WEB Address: www.autodesk.com
 90
      129
 91
        1
280
     0
281
     0
  0
CLASS
  1
AEC_DISP_PROPS_STAIR_MODEL
  2
AecDbDispPropsStairModel
  3
AecArchBase70|Product Desc: Autodesk Architectural Desktop 2007 |Company: Autodesk,Inc. |WEB Address: www.autodesk.com
 90
      129
 91
        1
280
     0
281
     0
  0
CLASS
  1
AEC_DISP_REP_STAIR_PLAN
  2
AecDbDispRepStairPlan
  3
AecArchBase70|Product Desc: Autodesk Architectural Desktop 2007 |Company: Autodesk,Inc. |WEB Address: www.autodesk.com
 90
      129
 91
        1
280
     0
281
     0
  0
CLASS
  1
AEC_DISP_REP_SPACE_RCP
  2
AecDbDispRepSpaceRcp
  3
AecArchBase70|Product Desc: Autodesk Architectural Desktop 2007 |Company: Autodesk,Inc. |WEB Address: www.autodesk.com
 90
      129
 91
        1
280
     0
281
     0
  0
CLASS
  1
AEC_DISP_REP_SPACE_DECOMPOSED
  2
AecDbDispRepSpaceDecomposed
  3
AecArchBase70|Product Desc: Autodesk Architectural Desktop 2007 |Company: Autodesk,Inc. |WEB Address: www.autodesk.com
 90
      129
 91
        1
280
     0
281
     0
  0
CLASS
  1
AEC_DISP_PROPS_SPACE_DECOMPOSED
  2
AecDbDispPropsSpaceDecomposed
  3
AecArchBase70|Product Desc: Autodesk Architectural Desktop 2007 |Company: Autodesk,Inc. |WEB Address: www.autodesk.com
 90
      129
 91
        1
280
     0
281
     0
  0
CLASS
  1
AEC_DISP_REP_ROOFSLAB_MODEL
  2
AecDbDispRepRoofSlabModel
  3
AecArchBase70|Product Desc: Autodesk Architectural Desktop 2007 |Company: Autodesk,Inc. |WEB Address: www.autodesk.com
 90
      129
 91
        1
280
     0
281
     0
  0
CLASS
  1
AEC_DISP_PROPS_ROOFSLAB
  2
AecDbDispPropsRoofSlab
  3
AecArchBase70|Product Desc: Autodesk Architectural Desktop 2007 |Company: Autodesk,Inc. |WEB Address: www.autodesk.com
 90
      129
 91
        1
280
     0
281
     0
  0
CLASS
  1
AEC_DISP_REP_STAIR_PLAN_100
  2
AecDbDispRepStairPlan100
  3
AecArchBase70|Product Desc: Autodesk Architectural Desktop 2007 |Company: Autodesk,Inc. |WEB Address: www.autodesk.com
 90
      129
 91
        1
280
     0
281
     0
  0
CLASS
  1
AEC_DISP_ROPS_STAIR_PLAN_100
  2
AecDbDispPropsStairPlan100
  3
AecArchBase70|Product Desc: Autodesk Architectural Desktop 2007 |Company: Autodesk,Inc. |WEB Address: www.autodesk.com
 90
      129
 91
        1
280
     0
281
     0
  0
CLASS
  1
AEC_DISP_REP_SPACE_MODEL
  2
AecDbDispRepSpaceModel
  3
AecArchBase70|Product Desc: Autodesk Architectural Desktop 2007 |Company: Autodesk,Inc. |WEB Address: www.autodesk.com
 90
      129
 91
        1
280
     0
281
     0
  0
CLASS
  1
AEC_DISP_PROPS_SPACE_MODEL
  2
AecDbDispPropsSpaceModel
  3
AecArchBase70|Product Desc: Autodesk Architectural Desktop 2007 |Company: Autodesk,Inc. |WEB Address: www.autodesk.com
 90
      129
 91
        1
280
     0
281
     0
  0
CLASS
  1
AEC_DISP_REP_SPACE_VOLUME
  2
AecDbDispRepSpaceVolume
  3
AecArchBase70|Product Desc: Autodesk Architectural Desktop 2007 |Company: Autodesk,Inc. |WEB Address: www.autodesk.com
 90
      129
 91
        1
280
     0
281
     0
  0
CLASS
  1
AEC_DISP_REP_STAIR_PLAN_50
  2
AecDbDispRepStairPlan50
  3
AecArchBase70|Product Desc: Autodesk Architectural Desktop 2007 |Company: Autodesk,Inc. |WEB Address: www.autodesk.com
 90
      129
 91
        1
280
     0
281
     0
  0
CLASS
  1
AEC_DISP_ROPS_STAIR_PLAN_50
  2
AecDbDispPropsStairPlan50
  3
AecArchBase70|Product Desc: Autodesk Architectural Desktop 2007 |Company: Autodesk,Inc. |WEB Address: www.autodesk.com
 90
      129
 91
        1
280
     0
281
     0
  0
CLASS
  1
AEC_DISP_REP_SLAB_MODEL
  2
AecDbDispRepSlabModel
  3
AecArchBase70|Product Desc: Autodesk Architectural Desktop 2007 |Company: Autodesk,Inc. |WEB Address: www.autodesk.com
 90
      129
 91
        1
280
     0
281
     0
  0
CLASS
  1
AEC_DISP_PROPS_SLAB
  2
AecDbDispPropsSlab
  3
AecArchBase70|Product Desc: Autodesk Architectural Desktop 2007 |Company: Autodesk,Inc. |WEB Address: www.autodesk.com
 90
      129
 91
        1
280
     0
281
     0
  0
CLASS
  1
AECS_DISP_REP_MEMBER_MODEL_DETAIL
  2
AecsDbDispRepMemberModelDetail
  3
AecArchBase70|Product Desc: Autodesk Architectural Desktop 2007 |Company: Autodesk,Inc. |WEB Address: www.autodesk.com
 90
      129
 91
        1
280
     0
281
     0
  0
CLASS
  1
AECS_DISP_PROPS_MEMBER
  2
AecsDbDispPropsMember
  3
AecArchBase70|Product Desc: Autodesk Architectural Desktop 2007 |Company: Autodesk,Inc. |WEB Address: www.autodesk.com
 90
      129
 91
        2
280
     0
281
     0
  0
CLASS
  1
AECS_DISP_REP_MEMBER_LOGICAL
  2
AecsDbDispRepMemberLogical
  3
AecArchBase70|Product Desc: Autodesk Architectural Desktop 2007 |Company: Autodesk,Inc. |WEB Address: www.autodesk.com
 90
      129
 91
        1
280
     0
281
     0
  0
CLASS
  1
AECS_DISP_PROPS_MEMBER_LOGICAL
  2
AecsDbDispPropsMemberLogical
  3
AecArchBase70|Product Desc: Autodesk Architectural Desktop 2007 |Company: Autodesk,Inc. |WEB Address: www.autodesk.com
 90
      129
 91
        1
280
     0
281
     0
  0
CLASS
  1
AECS_DISP_REP_MEMBER_ELEVATION_DETAIL
  2
AecsDbDispRepMemberElevationDetail
  3
AecArchBase70|Product Desc: Autodesk Architectural Desktop 2007 |Company: Autodesk,Inc. |WEB Address: www.autodesk.com
 90
      129
 91
        1
280
     0
281
     0
  0
CLASS
  1
AECS_DISP_PROPS_MEMBER_PROJECTED
  2
AecsDbDispPropsMemberProjected
  3
AecArchBase70|Product Desc: Autodesk Architectural Desktop 2007 |Company: Autodesk,Inc. |WEB Address: www.autodesk.com
 90
      129
 91
        2
280
     0
281
     0
  0
CLASS
  1
AECS_DISP_REP_MEMBER_MODEL_DESIGN
  2
AecsDbDispRepMemberModelDesign
  3
AecArchBase70|Product Desc: Autodesk Architectural Desktop 2007 |Company: Autodesk,Inc. |WEB Address: www.autodesk.com
 90
      129
 91
        1
280
     0
281
     0
  0
CLASS
  1
AECS_DISP_REP_MEMBER_ELEVATION_DESIGN
  2
AecsDbDispRepMemberElevationDesign
  3
AecArchBase70|Product Desc: Autodesk Architectural Desktop 2007 |Company: Autodesk,Inc. |WEB Address: www.autodesk.com
 90
      129
 91
        1
280
     0
281
     0
  0
CLASS
  1
AECS_DISP_REP_MEMBER_PLAN_DESIGN
  2
AecsDbDispRepMemberPlanDesign
  3
AecArchBase70|Product Desc: Autodesk Architectural Desktop 2007 |Company: Autodesk,Inc. |WEB Address: www.autodesk.com
 90
      129
 91
        1
280
     0
281
     0
  0
CLASS
  1
AECS_DISP_PROPS_MEMBER_PLAN
  2
AecsDbDispPropsMemberPlan
  3
AecArchBase70|Product Desc: Autodesk Architectural Desktop 2007 |Company: Autodesk,Inc. |WEB Address: www.autodesk.com
 90
      129
 91
        2
280
     0
281
     0
  0
CLASS
  1
AECS_DISP_REP_MEMBER_PLAN_DETAIL
  2
AecsDbDispRepMemberPlanDetail
  3
AecArchBase70|Product Desc: Autodesk Architectural Desktop 2007 |Company: Autodesk,Inc. |WEB Address: www.autodesk.com
 90
      129
 91
        1
280
     0
281
     0
  0
CLASS
  1
AECS_DISP_REP_MEMBER_PLAN_SKETCH
  2
AecsDbDispRepMemberPlanSketch
  3
AecArchBase70|Product Desc: Autodesk Architectural Desktop 2007 |Company: Autodesk,Inc. |WEB Address: www.autodesk.com
 90
      129
 91
        1
280
     0
281
     0
  0
CLASS
  1
AECS_DISP_PROPS_MEMBER_PLAN_SKETCH
  2
AecsDbDispPropsMemberPlanSketch
  3
AecArchBase70|Product Desc: Autodesk Architectural Desktop 2007 |Company: Autodesk,Inc. |WEB Address: www.autodesk.com
 90
      129
 91
        1
280
     0
281
     0
  0
CLASS
  1
AEC_DISP_REP_SCHEDULE_TABLE
  2
AecDbDispRepScheduleTable
  3
AecSchedule70|Product Desc: Autodesk Architectural Desktop 2007 |Company: Autodesk,Inc. |WEB Address: www.autodesk.com
 90
      129
 91
        1
280
     0
281
     0
  0
CLASS
  1
AEC_DISP_PROPS_SCHEDULE_TABLE
  2
AecDbDispPropsScheduleTable
  3
AecSchedule70|Product Desc: Autodesk Architectural Desktop 2007 |Company: Autodesk,Inc. |WEB Address: www.autodesk.com
 90
      129
 91
        1
280
     0
281
     0
  0
CLASS
  1
AEC_DISP_REP_SET
  2
AecDbDispRepSet
  3
AecBase70|Product Desc: Autodesk Architectural Desktop 2007 |Company: Autodesk,Inc. |WEB Address: www.autodesk.com
 90
      129
 91
       10
280
     0
281
     0
  0
CLASS
  1
AEC_DISP_REP_CONFIG
  2
AecDbDispRepConfig
  3
AecBase70|Product Desc: Autodesk Architectural Desktop 2007 |Company: Autodesk,Inc. |WEB Address: www.autodesk.com
 90
      129
 91
        2
280
     0
281
     0
  0
CLASS
  1
AEC_CLEANUP_GROUP_DEF
  2
AecDbCleanupGroupDef
  3
AecArchBase70|Product Desc: Autodesk Architectural Desktop 2007 |Company: Autodesk,Inc. |WEB Address: www.autodesk.com
 90
      129
 91
        1
280
     0
281
     0
  0
CLASS
  1
AEC_LAYERKEY_STYLE
  2
AecDbLayerKeyStyle
  3
AecBase70|Product Desc: Autodesk Architectural Desktop 2007 |Company: Autodesk,Inc. |WEB Address: www.autodesk.com
 90
      129
 91
        1
280
     0
281
     0
  0
CLASS
  1
AEC_VARS_ARCHBASE
  2
AecDbVarsArchBase
  3
AecArchBase70|Product Desc: Autodesk Architectural Desktop 2007 |Company: Autodesk,Inc. |WEB Address: www.autodesk.com
 90
      129
 91
        1
280
     0
281
     0
  0
CLASS
  1
AEC_VARS_STRUCTUREBASE
  2
AecsDbVarsStructureBase
  3
AecArchBase70|Product Desc: Autodesk Architectural Desktop 2007 |Company: Autodesk,Inc. |WEB Address: www.autodesk.com
 90
      129
 91
        1
280
     0
281
     0
  0
CLASS
  1
AEC_VARS_MUNICH
  2
AecDbVarsMunich
  3
AecArchBase70|Product Desc: Autodesk Architectural Desktop 2007 |Company: Autodesk,Inc. |WEB Address: www.autodesk.com
 90
      129
 91
        1
280
     0
281
     0
  0
CLASS
  1
BINRECORD
  2
AcAecBinRecord
  3
AecBase70|Product Desc: Autodesk Architectural Desktop 2007 |Company: Autodesk,Inc. |WEB Address: www.autodesk.com
 90
      129
 91
        1
280
     0
281
     0
  0
CLASS
  1
IMAGE
  2
AcDbRasterImage
  3
ISM
 90
     2175
 91
        0
280
     0
281
     1
  0
CLASS
  1
IMAGEDEF_REACTOR
  2
AcDbRasterImageDefReactor
  3
ISM
 90
        1
 91
        0
280
     0
281
     0
  0
CLASS
  1
IMAGEDEF
  2
AcDbRasterImageDef
  3
ISM
 90
        0
 91
        0
280
     0
281
     0
  0
CLASS
  1
RAPIDRTRENDERSETTINGS
  2
AcDbRapidRTRenderSettings
  3
ObjectDBX Classes
 90
     1024
 91
        2
280
     0
281
     0
  0
CLASS
  1
MENTALRAYRENDERSETTINGS
  2
AcDbMentalRayRenderSettings
  3
SCENEOE
 90
     1024
 91
        1
280
     0
281
     0
  0
ENDSEC
  0
SECTION
  2
TABLES
  0
TABLE
  2
VPORT
  5
8
102
{ACAD_XDICTIONARY
360
B51
102
}
330
0
100
AcDbSymbolTable
 70
     1
  0
VPORT
  5
DAB
330
8
100
AcDbSymbolTableRecord
100
AcDbViewportTableRecord
  2
*Active
 70
     0
 10
0.0
 20
0.0
 11
1.0
 21
1.0
 12
29.38830085514695
 22
-40.0958619477853
 13
0.0
 23
0.0
 14
0.5
 24
0.5
 15
0.5
 25
0.5
 16
0.0
 26
0.0
 36
1.0
 17
0.0
 27
0.0
 37
0.0
 40
59.34528347026597
 41
2.068714632174616
 42
50.0
 43
0.0
 44
0.0
 50
0.0
 51
0.0
 71
     0
 72
  1000
 73
     1
 74
     3
 75
     0
 76
     1
 77
     0
 78
     1
281
     0
 65
     1
110
0.0
120
0.0
130
0.0
111
1.0
121
0.0
131
0.0
112
0.0
122
1.0
132
0.0
 79
     0
146
0.0
348
9F
 60
     2
 61
     5
292
     1
282
     1
141
0.0
142
0.0
 63
   250
421
  3355443
1001
ACAD_NAV_VCDISPLAY
1070
     3
  0
ENDTAB
  0
TABLE
  2
LTYPE
  5
5
330
0
100
AcDbSymbolTable
 70
     2
  0
LTYPE
  5
14
330
5
100
AcDbSymbolTableRecord
100
AcDbLinetypeTableRecord
  2
ByBlock
 70
     0
  3

 72
    65
 73
     0
 40
0.0
  0
LTYPE
  5
15
330
5
100
AcDbSymbolTableRecord
100
AcDbLinetypeTableRecord
  2
ByLayer
 70
     0
  3

 72
    65
 73
     0
 40
0.0
  0
LTYPE
  5
16
330
5
100
AcDbSymbolTableRecord
100
AcDbLinetypeTableRecord
  2
Continuous
 70
     0
  3
Solid line
 72
    65
 73
     0
 40
0.0
  0
LTYPE
  5
A610A
330
5
100
AcDbSymbolTableRecord
100
AcDbLinetypeTableRecord
  2
DASHED
 70
     0
  3
Dashed __ __ __ __ __ __ __ __ __ __ __ __ __ _
 72
    65
 73
     2
 40
0.75
 49
0.5
 74
     0
 49
-0.25
 74
     0
  0
ENDTAB
  0
TABLE
  2
LAYER
  5
2
102
{ACAD_XDICTIONARY
360
E7
102
}
330
0
100
AcDbSymbolTable
 70
    27
  0
LAYER
  5
10
102
{ACAD_XDICTIONARY
360
A6C
102
}
330
2
100
AcDbSymbolTableRecord
100
AcDbLayerTableRecord
  2
0
 70
     0
 62
     7
  6
Continuous
370
    -3
390
F
347
98
348
0
  0
LAYER
  5
9D0
330
2
100
AcDbSymbolTableRecord
100
AcDbLayerTableRecord
  2
Defpoints
 70
     0
 62
     7
  6
Continuous
290
     0
370
    -3
390
F
347
98
348
0
  0
LAYER
  5
9583E
330
2
100
AcDbSymbolTableRecord
100
AcDbLayerTableRecord
  2
HI Fitting
 70
     0
 62
     3
  6
Continuous
370
    -3
390
F
347
98
348
0
1001
AcAecLayerStandard
1000

1000

1001
AcCmTransparency
1071
        0
  0
LAYER
  5
9583F
330
2
100
AcDbSymbolTableRecord
100
AcDbLayerTableRecord
  2
HI Lateral
 70
     0
 62
     2
  6
Continuous
370
    -3
390
F
347
98
348
0
1001
AcAecLayerStandard
1000

1000

1001
AcCmTransparency
1071
        0
  0
LAYER
  5
9588B
330
2
100
AcDbSymbolTableRecord
100
AcDbLayerTableRecord
  2
HI Text
 70
     0
 62
     2
  6
Continuous
370
    -3
390
F
347
98
348
0
1001
AcAecLayerStandard
1000

1000

1001
AcCmTransparency
1071
        0
  0
LAYER
  5
9C87A
330
2
100
AcDbSymbolTableRecord
100
AcDbLayerTableRecord
  2
HI HATCH FILL
 70
     0
 62
     9
  6
Continuous
370
    -3
390
F
347
98
348
0
1001
AcAecLayerStandard
1000

1000

1001
AcCmTransparency
1071
        0
  0
LAYER
  5
9CBA3
330
2
100
AcDbSymbolTableRecord
100
AcDbLayerTableRecord
  2
HI Product Outline
 70
     0
 62
     5
  6
Continuous
370
    -3
390
F
347
98
348
0
1001
AcAecLayerStandard
1000

1000

1001
AcCmTransparency
1071
        0
  0
LAYER
  5
9CBA6
330
2
100
AcDbSymbolTableRecord
100
AcDbLayerTableRecord
  2
HI Lateral Detail
 70
     0
 62
   249
  6
Continuous
370
    -3
390
F
347
98
348
0
1001
AcAecLayerStandard
1000

1000

1001
AcCmTransparency
1071
        0
  0
LAYER
  5
9CBA7
330
2
100
AcDbSymbolTableRecord
100
AcDbLayerTableRecord
  2
HI Deatil 1
 70
     0
 62
     2
  6
Continuous
370
    -3
390
F
347
98
348
0
1001
AcAecLayerStandard
1000

1000

1001
AcCmTransparency
1071
        0
  0
LAYER
  5
9CBA8
330
2
100
AcDbSymbolTableRecord
100
AcDbLayerTableRecord
  2
HI Deatil 2
 70
     0
 62
     1
  6
Continuous
370
    -3
390
F
347
98
348
0
1001
AcAecLayerStandard
1000

1000

1001
AcCmTransparency
1071
        0
  0
LAYER
  5
9CBA9
330
2
100
AcDbSymbolTableRecord
100
AcDbLayerTableRecord
  2
HI Detail 3
 70
     0
 62
   249
  6
Continuous
370
    -3
390
F
347
98
348
0
1001
AcAecLayerStandard
1000

1000

1001
AcCmTransparency
1071
        0
  0
LAYER
  5
9CBAB
330
2
100
AcDbSymbolTableRecord
100
AcDbLayerTableRecord
  2
HI Dimensions
 70
     0
 62
     1
  6
Continuous
370
    -3
390
F
347
98
348
0
1001
AcAecLayerStandard
1000

1000

1001
AcCmTransparency
1071
        0
  0
LAYER
  5
9EC2B
102
{ACAD_XDICTIONARY
360
9EC2C
102
}
330
2
100
AcDbSymbolTableRecord
100
AcDbLayerTableRecord
  2
L-dtl-htch
 70
     0
 62
   212
  6
Continuous
370
     0
390
F
347
98
348
0
1001
AcAecLayerStandard
1000

1000

  0
LAYER
  5
A0E56
330
2
100
AcDbSymbolTableRecord
100
AcDbLayerTableRecord
  2
HI Building Wall
 70
     0
 62
     6
  6
Continuous
370
    25
390
F
347
98
348
0
1001
AcAecLayerStandard
1000

1000

1001
AcCmTransparency
1071
        0
  0
LAYER
  5
A1F94
330
2
100
AcDbSymbolTableRecord
100
AcDbLayerTableRecord
  2
HI Text2
 70
     0
 62
     1
  6
Continuous
370
    -3
390
F
347
98
348
0
1001
AcAecLayerStandard
1000

1000

1001
AcCmTransparency
1071
        0
  0
LAYER
  5
A21B7
330
2
100
AcDbSymbolTableRecord
100
AcDbLayerTableRecord
  2
HI No Print
 70
     0
 62
     7
  6
Continuous
290
     0
370
    -3
390
F
347
98
348
0
1001
AcAecLayerStandard
1000

1000

1001
AcCmTransparency
1071
        0
  0
LAYER
  5
A610B
330
2
100
AcDbSymbolTableRecord
100
AcDbLayerTableRecord
  2
D-OBJECT
 70
     0
 62
     2
  6
Continuous
370
    -3
390
F
347
98
348
0
1001
AcAecLayerStandard
1000

1000

1001
AcCmTransparency
1071
        0
  0
LAYER
  5
A610C
330
2
100
AcDbSymbolTableRecord
100
AcDbLayerTableRecord
  2
D-OBJECT LIGHT
 70
     0
 62
     4
  6
Continuous
370
    -3
390
F
347
98
348
0
1001
AcAecLayerStandard
1000

1000

1001
AcCmTransparency
1071
        0
  0
LAYER
  5
A610D
330
2
100
AcDbSymbolTableRecord
100
AcDbLayerTableRecord
  2
D-OBJECT HEAVY
 70
     0
 62
     3
  6
Continuous
370
    -3
390
F
347
98
348
0
1001
AcAecLayerStandard
1000

1000

1001
AcCmTransparency
1071
        0
  0
LAYER
  5
A610E
330
2
100
AcDbSymbolTableRecord
100
AcDbLayerTableRecord
  2
D-TEXT
 70
     0
 62
     2
  6
Continuous
370
    -3
390
F
347
98
348
0
1001
AcAecLayerStandard
1000

1000

1001
AcCmTransparency
1071
        0
  0
LAYER
  5
A610F
330
2
100
AcDbSymbolTableRecord
100
AcDbLayerTableRecord
  2
D-LEADER
 70
     0
 62
     2
  6
Continuous
370
    -3
390
F
347
98
348
0
1001
AcAecLayerStandard
1000

1000

1001
AcCmTransparency
1071
        0
  0
LAYER
  5
A6110
330
2
100
AcDbSymbolTableRecord
100
AcDbLayerTableRecord
  2
D-HATCH
 70
     0
 62
     1
  6
Continuous
370
    -3
390
F
347
98
348
0
1001
AcAecLayerStandard
1000

1000

1001
AcCmTransparency
1071
        0
  0
LAYER
  5
A6111
330
2
100
AcDbSymbolTableRecord
100
AcDbLayerTableRecord
  2
D-DASHED LIGHT
 70
     0
 62
     4
  6
DASHED
370
    -3
390
F
347
98
348
0
1001
AcAecLayerStandard
1000

1000

1001
AcCmTransparency
1071
        0
  0
LAYER
  5
A6112
330
2
100
AcDbSymbolTableRecord
100
AcDbLayerTableRecord
  2
D-HATCH SCREENED
 70
     0
 62
     8
  6
Continuous
370
    -3
390
F
347
98
348
0
1001
AcAecLayerStandard
1000

1000

1001
AcCmTransparency
1071
        0
  0
LAYER
  5
AB757
330
2
100
AcDbSymbolTableRecord
100
AcDbLayerTableRecord
  2
D-PLANTS
 70
     0
 62
     4
  6
Continuous
370
    -3
390
F
347
98
348
0
1001
AcAecLayerStandard
1000

1000

1001
AcCmTransparency
1071
        0
  0
LAYER
  5
ABF9B
330
2
100
AcDbSymbolTableRecord
100
AcDbLayerTableRecord
  2
D-OBJECT SCREENED
 70
     0
 62
   253
  6
Continuous
370
    -3
390
F
347
98
348
0
1001
AcCmTransparency
1071
        0
1001
AcAecLayerStandard
1000

1000

  0
LAYER
  5
AE1AE
102
{ACAD_XDICTIONARY
360
AE1AF
102
}
330
2
100
AcDbSymbolTableRecord
100
AcDbLayerTableRecord
  2
LK-IRRG-025M
 70
     0
 62
     4
  6
Continuous
370
    -3
390
F
347
98
348
0
  0
ENDTAB
  0
TABLE
  2
STYLE
  5
3
330
0
100
AcDbSymbolTable
 70
     5
  0
STYLE
  5
11
330
3
100
AcDbSymbolTableRecord
100
AcDbTextStyleTableRecord
  2
Standard
 70
     0
 40
0.0
 41
1.0
 50
0.0
 71
     0
 42
12.10402048440558
  3
arial.ttf
  4

1001
ACAD
1000
Arial
1071
       34
  0
STYLE
  5
1BACD
330
3
100
AcDbSymbolTableRecord
100
AcDbTextStyleTableRecord
  2
DIMS
 70
     0
 40
0.0
 41
1.0
 50
0.0
 71
     0
 42
0.2
  3
arial.ttf
  4

1001
ACAD
1000
Arial
1071
       34
  0
STYLE
  5
5DCD6
330
3
100
AcDbSymbolTableRecord
100
AcDbTextStyleTableRecord
  2
Hunter
 70
     0
 40
0.0
 41
0.7
 50
0.0
 71
     0
 42
0.09375
  3
romans.shx
  4

  0
STYLE
  5
78DB5
330
3
100
AcDbSymbolTableRecord
100
AcDbTextStyleTableRecord
  2
STYLE1
 70
     0
 40
0.0
 41
1.0
 50
0.0
 71
     0
 42
0.2
  3
txt
  4

  0
STYLE
  5
A6113
330
3
100
AcDbSymbolTableRecord
100
AcDbTextStyleTableRecord
  2
romand
 70
     0
 40
0.25
 41
1.0
 50
0.0
 71
     0
 42
0.25
  3
romand.shx
  4

  0
ENDTAB
  0
TABLE
  2
VIEW
  5
6
330
0
100
AcDbSymbolTable
 70
     0
  0
ENDTAB
  0
TABLE
  2
UCS
  5
7
330
0
100
AcDbSymbolTable
 70
     0
  0
ENDTAB
  0
TABLE
  2
APPID
  5
9
330
0
100
AcDbSymbolTable
 70
    18
  0
APPID
  5
12
330
9
100
AcDbSymbolTableRecord
100
AcDbRegAppTableRecord
  2
ACAD
 70
     0
  0
APPID
  5
BE
330
9
100
AcDbSymbolTableRecord
100
AcDbRegAppTableRecord
  2
ACAD_PSEXT
 70
     0
  0
APPID
  5
DBF
330
9
100
AcDbSymbolTableRecord
100
AcDbRegAppTableRecord
  2
AcAecLayerStandard
 70
     0
  0
APPID
  5
FEF2
330
9
100
AcDbSymbolTableRecord
100
AcDbRegAppTableRecord
  2
ACAD_DSTYLE_DIMJOGGED_JOGANGLE_SYMBOL
 70
     0
  0
APPID
  5
1BACF
330
9
100
AcDbSymbolTableRecord
100
AcDbRegAppTableRecord
  2
ACAD_DSTYLE_DIMJAG
 70
     0
  0
APPID
  5
1BAD0
330
9
100
AcDbSymbolTableRecord
100
AcDbRegAppTableRecord
  2
ACAD_DSTYLE_DIMTALN
 70
     0
  0
APPID
  5
5B55B
330
9
100
AcDbSymbolTableRecord
100
AcDbRegAppTableRecord
  2
ACAD_NAV_VCDISPLAY
 70
     0
  0
APPID
  5
5C537
330
9
100
AcDbSymbolTableRecord
100
AcDbRegAppTableRecord
  2
AEC_OBJVER_INFO
 70
     0
  0
APPID
  5
95767
330
9
100
AcDbSymbolTableRecord
100
AcDbRegAppTableRecord
  2
AcCmTransparency
 70
     0
  0
APPID
  5
9C807
330
9
100
AcDbSymbolTableRecord
100
AcDbRegAppTableRecord
  2
AEC_XDATA_BOUND_SPACE
 70
     0
  0
APPID
  5
9C925
330
9
100
AcDbSymbolTableRecord
100
AcDbRegAppTableRecord
  2
GradientColor1ACI
 70
     0
  0
APPID
  5
9C926
330
9
100
AcDbSymbolTableRecord
100
AcDbRegAppTableRecord
  2
GradientColor2ACI
 70
     0
  0
APPID
  5
A0A0A
330
9
100
AcDbSymbolTableRecord
100
AcDbRegAppTableRecord
  2
ACAD_MLEADERVER
 70
     0
  0
APPID
  5
A0A2C
330
9
100
AcDbSymbolTableRecord
100
AcDbRegAppTableRecord
  2
ManulPointsAssociative
 70
     0
  0
APPID
  5
A0A2D
330
9
100
AcDbSymbolTableRecord
100
AcDbRegAppTableRecord
  2
LandFX
 70
     0
  0
APPID
  5
A0DDB
330
9
100
AcDbSymbolTableRecord
100
AcDbRegAppTableRecord
  2
ACAD_EXEMPT_FROM_CAD_STANDARDS
 70
     0
  0
APPID
  5
A3AA6
330
9
100
AcDbSymbolTableRecord
100
AcDbRegAppTableRecord
  2
ACAD_DSTYLE_DIMRADIAL_EXTENSION
 70
     0
  0
APPID
  5
AE1B0
330
9
100
AcDbSymbolTableRecord
100
AcDbRegAppTableRecord
  2
LANDTECH
 70
     0
  0
ENDTAB
  0
TABLE
  2
DIMSTYLE
  5
A
330
0
100
AcDbSymbolTable
 70
     3
100
AcDbDimStyleTable
 71
     3
340
9EC41
340
1BACE
340
27
  0
DIMSTYLE
105
27
330
A
100
AcDbSymbolTableRecord
100
AcDbDimStyleTableRecord
  2
Standard
 70
     0
340
11
  0
DIMSTYLE
105
1BACE
330
A
100
AcDbSymbolTableRecord
100
AcDbDimStyleTableRecord
  2
LandMatters
 70
     0
 41
0.125
 49
0.18
 73
     0
 74
     0
140
0.125
141
0.0750000000000001
147
0.095
174
     1
176
     2
177
     2
178
     2
271
     3
272
     3
277
     4
279
     1
289
     1
340
1BACD
342
1BAAE
1001
ACAD_DSTYLE_DIMJOGGED_JOGANGLE_SYMBOL
1070
   384
1040
0.7853981633974483
1001
ACAD_DSTYLE_DIMJAG
1070
   388
1040
1.5
1001
ACAD_DSTYLE_DIMTALN
1070
   392
1070
     0
  0
DIMSTYLE
105
9EC41
330
A
100
AcDbSymbolTableRecord
100
AcDbDimStyleTableRecord
  2
HUNTER-1.5INCH
 70
     0
 41
1.0
 42
0.05
 43
0.505
 44
0.675
 46
0.675
 73
     0
 74
     0
 78
     3
140
1.0
144
0.9999999999999998
147
0.04
172
     1
176
   256
177
   256
178
   256
271
     0
272
     0
277
     4
279
     2
289
     1
340
5DCD6
341
9EC11
342
1BAAE
371
    -1
  0
ENDTAB
  0
TABLE
  2
BLOCK_RECORD
  5
1
330
0
100
AcDbSymbolTable
 70
     7
  0
BLOCK_RECORD
  5
1F
102
{ACAD_XDICTIONARY
360
A62
102
}
330
1
100
AcDbSymbolTableRecord
100
AcDbBlockTableRecord
  2
*Model_Space
340
22
 70
     0
280
     1
281
     0
  0
BLOCK_RECORD
  5
A21B8
330
1
100
AcDbSymbolTableRecord
100
AcDbBlockTableRecord
  2
*Paper_Space
340
A21B9
 70
     0
280
     1
281
     0
  0
BLOCK_RECORD
  5
1BAAE
330
1
100
AcDbSymbolTableRecord
100
AcDbBlockTableRecord
  2
_ARCHTICK
340
0
 70
     0
280
     1
281
     0
  0
BLOCK_RECORD
  5
9EC11
330
1
100
AcDbSymbolTableRecord
100
AcDbBlockTableRecord
  2
_Open90
340
0
 70
     0
280
     1
281
     0
  0
BLOCK_RECORD
  5
A024C
330
1
100
AcDbSymbolTableRecord
100
AcDbBlockTableRecord
  2
_Integral
340
0
 70
     0
280
     1
281
     0
  0
BLOCK_RECORD
  5
A21A0
330
1
100
AcDbSymbolTableRecord
100
AcDbBlockTableRecord
  2
*Paper_Space3
340
A21A1
 70
     0
280
     1
281
     0
  0
BLOCK_RECORD
  5
A3B49
330
1
100
AcDbSymbolTableRecord
100
AcDbBlockTableRecord
  2
_FILLED
340
0
 70
     0
280
     1
281
     0
  0
BLOCK_RECORD
  5
AE1B1
330
1
100
AcDbSymbolTableRecord
100
AcDbBlockTableRecord
  2
LAFX-90EL-SLSL
340
0
 70
     0
280
     1
281
     0
  0
BLOCK_RECORD
  5
AE3D7
330
1
100
AcDbSymbolTableRecord
100
AcDbBlockTableRecord
  2
break
340
0
102
{BLKREFS
331
AE3DA
102
}
 70
     1
280
     1
281
     0
  0
ENDTAB
  0
ENDSEC
  0
SECTION
  2
BLOCKS
  0
BLOCK
  5
20
330
1F
100
AcDbEntity
  8
0
100
AcDbBlockBegin
  2
*Model_Space
 70
     0
 10
0.0
 20
0.0
 30
0.0
  3
*Model_Space
  1

  0
ENDBLK
  5
21
330
1F
100
AcDbEntity
  8
0
100
AcDbBlockEnd
  0
BLOCK
  5
A21BA
330
A21B8
100
AcDbEntity
 67
     1
  8
0
100
AcDbBlockBegin
  2
*Paper_Space
 70
     0
 10
0.0
 20
0.0
 30
0.0
  3
*Paper_Space
  1

  0
ENDBLK
  5
A21BB
330
A21B8
100
AcDbEntity
 67
     1
  8
0
100
AcDbBlockEnd
  0
BLOCK
  5
1BAAF
330
1BAAE
100
AcDbEntity
  8
0
100
AcDbBlockBegin
  2
_ARCHTICK
 70
     0
 10
0.0
 20
0.0
 30
0.0
  3
_ARCHTICK
  1

  0
LWPOLYLINE
  5
1BAB0
330
1BAAE
100
AcDbEntity
  8
0
  6
ByBlock
 62
     0
100
AcDbPolyline
 90
        2
 70
     0
 43
0.15
 10
-0.5
 20
-0.5
 10
0.5
 20
0.5
  0
ENDBLK
  5
1BAB1
330
1BAAE
100
AcDbEntity
  8
0
100
AcDbBlockEnd
  0
BLOCK
  5
9EC12
330
9EC11
100
AcDbEntity
  8
0
100
AcDbBlockBegin
  2
_Open90
 70
     0
 10
0.0
 20
0.0
 30
0.0
  3
_Open90
  1

  0
LINE
  5
9EC13
330
9EC11
100
AcDbEntity
  8
L-dtl-htch
 62
     0
370
    -2
100
AcDbLine
 10
-0.5
 20
0.5
 30
0.0
 11
0.0
 21
0.0
 31
0.0
  0
LINE
  5
9EC14
330
9EC11
100
AcDbEntity
  8
L-dtl-htch
 62
     0
370
    -2
100
AcDbLine
 10
0.0
 20
0.0
 30
0.0
 11
-0.5
 21
-0.5
 31
0.0
  0
LINE
  5
9EC15
330
9EC11
100
AcDbEntity
  8
L-dtl-htch
 62
     0
370
    -2
100
AcDbLine
 10
0.0
 20
0.0
 30
0.0
 11
-1.0
 21
0.0
 31
0.0
  0
ENDBLK
  5
9EC16
330
9EC11
100
AcDbEntity
  8
0
100
AcDbBlockEnd
  0
BLOCK
  5
A024F
330
A024C
100
AcDbEntity
  8
0
100
AcDbBlockBegin
  2
_Integral
 70
     0
 10
0.0
 20
0.0
 30
0.0
  3
_Integral
  1

  0
ARC
  5
A024D
330
A024C
100
AcDbEntity
  8
0
  6
ByBlock
 62
     0
370
    -2
100
AcDbCircle
 10
0.44488802
 20
-0.09133463
 30
0.0
 40
0.4541666700000001
100
AcDbArc
 50
101.9999999980395
 51
167.9999999799193
  0
ARC
  5
A024E
330
A024C
100
AcDbEntity
  8
0
  6
ByBlock
 62
     0
370
    -2
100
AcDbCircle
 10
-0.44488802
 20
0.09133463
 30
0.0
 40
0.4541666700000001
100
AcDbArc
 50
282.0000000215427
 51
348.0000000034225
  0
ENDBLK
  5
A0250
330
A024C
100
AcDbEntity
  8
0
100
AcDbBlockEnd
  0
BLOCK
  5
A21A2
330
A21A0
100
AcDbEntity
 67
     1
  8
0
100
AcDbBlockBegin
  2
*Paper_Space3
 70
     0
 10
0.0
 20
0.0
 30
0.0
  3
*Paper_Space3
  1

  0
VIEWPORT
  5
A21AE
102
{ACAD_XDICTIONARY
360
A21AF
102
}
330
A21A0
100
AcDbEntity
 67
     1
  8
0
100
AcDbViewport
 10
4.021899493660514
 20
4.799458511232391
 30
0.0
 40
24.07570036331255
 41
11.63799974576695
 68
     0
 69
     0
 12
4.021899493660514
 22
4.799458511232391
 13
0.0
 23
0.0
 14
0.5
 24
0.5
 15
0.5
 25
0.5
 16
0.0
 26
0.0
 36
1.0
 17
0.0
 27
0.0
 37
0.0
 42
50.0
 43
0.0
 44
0.0
 45
11.63799974576695
 50
0.0
 51
0.0
 72
  1000
 90
   819232
  1

281
     0
 71
     1
 74
     0
110
0.0
120
0.0
130
0.0
111
1.0
121
0.0
131
0.0
112
0.0
122
1.0
132
0.0
 79
     0
146
0.0
170
     0
 61
     5
348
9F
292
     1
282
     1
141
0.0
142
0.0
 63
   250
421
  3355443
  0
VIEWPORT
  5
A21B2
102
{ACAD_XDICTIONARY
360
A21B3
102
}
330
A21A0
100
AcDbEntity
 67
     1
  8
HI No Print
100
AcDbViewport
 10
4.020804666392223
 20
4.805464939439232
 30
0.0
 40
7.949051735299221
 41
9.529642848206506
 68
     0
 69
     0
 12
124.9205915057414
 22
22.63789423789707
 13
0.0
 23
0.0
 14
0.5
 24
0.5
 15
0.5
 25
0.5
 16
0.0
 26
0.0
 36
178.3294139684135
 17
-100.2903367760448
 27
-56.40334146147367
 37
0.0
 42
50.0
 43
0.0
 44
0.0
 45
42.62227182102221
 50
0.0
 51
0.0
 72
  1000
 90
   557664
  1

281
     0
 71
     1
 74
     0
110
0.0
120
0.0
130
0.0
111
1.0
121
0.0
131
0.0
112
0.0
122
1.0
132
0.0
 79
     0
146
0.0
170
     0
 61
     5
348
9F
292
     1
282
     1
141
0.0
142
0.0
 63
   250
421
  3355443
  0
ENDBLK
  5
A21A3
330
A21A0
100
AcDbEntity
 67
     1
  8
0
100
AcDbBlockEnd
  0
BLOCK
  5
A3B4A
330
A3B49
100
AcDbEntity
  8
0
100
AcDbBlockBegin
  2
_FILLED
 70
     0
 10
0.0
 20
0.0
 30
0.0
  3
_FILLED
  1

  0
SOLID
  5
A3B4B
330
A3B49
100
AcDbEntity
  8
0
  6
ByBlock
 62
     0
100
AcDbTrace
 10
0.0
 20
0.0
 30
0.0
 11
-1.0
 21
0.16875
 31
0.0
 12
-1.0
 22
-0.16875
 32
0.0
 13
-1.0
 23
-0.16875
 33
0.0
  0
ENDBLK
  5
A3B4C
330
A3B49
100
AcDbEntity
  8
0
  6
ByBlock
 62
     0
100
AcDbBlockEnd
  0
BLOCK
  5
AE1BA
330
AE1B1
100
AcDbEntity
  8
0
100
AcDbBlockBegin
  2
LAFX-90EL-SLSL
 70
     0
 10
0.0
 20
0.0
 30
0.0
  3
LAFX-90EL-SLSL
  1

  0
LINE
  5
AE1B2
330
AE1B1
100
AcDbEntity
  8
LK-IRRG-025M
100
AcDbLine
 10
0.6813050990954244
 20
0.0145731464300489
 30
0.0
 11
-0.8010426600610056
 21
0.0145731464300489
 31
0.0
  0
ARC
  5
AE1B3
330
AE1B1
100
AcDbEntity
  8
LK-IRRG-025M
100
AcDbCircle
 10
0.0433116563140779
 20
1.382761901014866
 30
0.0
 40
0.8506595227023041
100
AcDbArc
 50
92.94798381309098
 51
173.019636851632
  0
LINE
  5
AE1B4
330
AE1B1
100
AcDbEntity
  8
LK-IRRG-025M
100
AcDbLine
 10
-0.8010426600610056
 20
0.0145731464300489
 30
0.0
 11
-0.8010426600610056
 21
1.48614184095912
 31
0.0
  0
LINE
  5
AE1B5
330
AE1B1
100
AcDbEntity
  8
LK-IRRG-025M
100
AcDbLine
 10
1.406332670756085
 20
2.232295692044512
 30
0.0
 11
1.406332670756085
 21
0.741267751305383
 31
0.0
  0
LINE
  5
AE1B6
330
AE1B1
100
AcDbEntity
  8
LK-IRRG-025M
100
AcDbLine
 10
1.406332670756085
 20
0.741267751305383
 30
0.0
 11
0.6813050990954244
 21
0.741267751305383
 31
0.0
  0
LINE
  5
AE1B7
330
AE1B1
100
AcDbEntity
  8
LK-IRRG-025M
100
AcDbLine
 10
0.6813050990954244
 20
0.7416243756811128
 30
0.0
 11
0.6813050990954244
 21
0.0145731464300489
 31
0.0
  0
LINE
  5
AE1B8
330
AE1B1
100
AcDbEntity
  8
LK-IRRG-025M
100
AcDbLine
 10
0.6813050990954244
 20
0.741267751305383
 30
0.0
 11
0.6813050990954244
 21
0.7416243756811128
 31
0.0
  0
LINE
  5
AE1B9
330
AE1B1
100
AcDbEntity
  8
LK-IRRG-025M
100
AcDbLine
 10
-0.0004371889610599
 20
2.232295692044512
 30
0.0
 11
1.406332670756085
 21
2.232295692044512
 31
0.0
  0
ENDBLK
  5
AE1BB
330
AE1B1
100
AcDbEntity
  8
0
100
AcDbBlockEnd
  0
BLOCK
  5
AE3D8
330
AE3D7
100
AcDbEntity
  8
0
100
AcDbBlockBegin
  2
break
 70
     0
 10
0.0
 20
0.0
 30
0.0
  3
break
  1

  0
ENDBLK
  5
AE3D9
330
AE3D7
100
AcDbEntity
  8
0
100
AcDbBlockEnd
  0
ENDSEC
  0
SECTION
  2
ENTITIES
  0
CIRCLE
  5
A06B8
330
1F
100
AcDbEntity
  8
HI Text
100
AcDbCircle
 10
9.456222684732072
 20
-48.82061127142208
 30
0.0
 40
1.633232321863463
  0
LINE
  5
A06B9
330
1F
100
AcDbEntity
  8
HI Text
100
AcDbLine
 10
11.0894550065951
 20
-48.82061127142208
 30
0.0
 11
41.36980707704842
 21
-48.82061127142208
 31
0.0
  0
CIRCLE
  5
A06BA
330
1F
100
AcDbEntity
  8
HI Text
100
AcDbCircle
 10
14.54444554289657
 20
-49.28059726609109
 30
0.0
 40
0.0666400503025599
  0
TEXT
  5
A06BB
330
1F
100
AcDbEntity
  8
HI Text
100
AcDbText
 10
14.51714492455592
 20
-49.32132963757154
 30
0.0
 40
0.0866448019748771
  1
R
  7
STYLE1
 72
     1
 11
14.54602652521422
 21
-49.32132963757154
 31
0.0
100
AcDbText
  0
CIRCLE
  5
A06BC
102
{ACAD_REACTORS
330
AE0D0
102
}
330
1F
100
AcDbEntity
  8
HI Text
100
AcDbCircle
 10
14.37948155883956
 20
-49.46296396602199
 30
0.0
 40
0.0996040771360683
  0
LWPOLYLINE
  5
A06BD
102
{ACAD_REACTORS
330
AE0D0
102
}
330
1F
100
AcDbEntity
  8
HI Text
100
AcDbPolyline
 90
        5
 70
     1
 43
0.0
 10
14.02435566490735
 20
-49.60893834462168
 10
14.02435566491468
 20
-49.55098789851589
 42
0.3591622824268968
 10
13.84044437867479
 20
-49.36369840623399
 10
13.80648829620296
 20
-49.36369840622048
 10
13.80648829620296
 20
-49.60893834462168
  0
LWPOLYLINE
  5
A06BE
102
{ACAD_REACTORS
330
AE0D0
102
}
330
1F
100
AcDbEntity
  8
HI Text
100
AcDbPolyline
 90
        5
 70
     1
 43
0.0
 10
12.42239856240457
 20
-49.85451680035078
 10
12.47601203496535
 20
-49.85451680035078
 10
12.47601203496535
 20
-49.36335988889322
 10
12.26742937931576
 20
-49.36335988889322
 10
12.26742937931576
 20
-49.69954761726191
 42
0.4142135623730951
  0
LWPOLYLINE
  5
A06BF
102
{ACAD_REACTORS
330
AE0D0
102
}
330
1F
100
AcDbEntity
  8
HI Text
100
AcDbPolyline
 90
        5
 70
     1
 43
0.0
 10
12.52299058853851
 20
-49.36335988889322
 10
12.73157324418819
 20
-49.36335988889322
 10
12.73157324418819
 20
-49.69954761726191
 42
-0.4142135623730951
 10
12.57660406109929
 20
-49.85451680035073
 10
12.52299058853851
 20
-49.85451680035078
  0
LWPOLYLINE
  5
A06C0
102
{ACAD_REACTORS
330
AE0D0
102
}
330
1F
100
AcDbEntity
  8
HI Text
100
AcDbPolyline
 90
        5
 70
     1
 43
0.0
 10
13.03411300698403
 20
-49.36335988889322
 10
13.03411300698403
 20
-49.85451680035078
 10
13.24269566263365
 20
-49.85451680035078
 10
13.24269566263365
 20
-49.51832907198206
 42
0.4142135623730948
 10
13.08772647954484
 20
-49.36335988889325
  0
LWPOLYLINE
  5
A06C1
102
{ACAD_REACTORS
330
AE0D0
102
}
330
1F
100
AcDbEntity
  8
HI Text
100
AcDbPolyline
 90
        4
 70
     1
 43
0.0
 10
14.04782524548213
 20
-49.85451680034346
 10
14.04782524548213
 20
-49.3633598888859
 10
14.25640790113178
 20
-49.3633598888859
 10
14.25640790113178
 20
-49.85451680034346
  0
LWPOLYLINE
  5
A06C2
102
{ACAD_REACTORS
330
AE0D0
102
}
330
1F
100
AcDbEntity
  8
HI Text
100
AcDbPolyline
 90
        7
 70
     0
 43
0.0
 10
13.78154542646641
 20
-49.85417828301
 42
0.1809313373683727
 10
14.01503047162058
 20
-49.76682929043811
 10
14.01503047161069
 20
-49.70175337007184
 42
-0.2202952373044754
 10
13.75660255672975
 20
-49.79832151750051
 10
13.75660255672912
 20
-49.36369840623405
 42
0.9488198287109453
 10
13.7566025567298
 20
-49.85417828300997
 10
13.78154542646641
 20
-49.85417828301
  0
LWPOLYLINE
  5
A06C3
102
{ACAD_REACTORS
330
AE0D0
102
}
330
1F
100
AcDbEntity
  8
HI Text
100
AcDbPolyline
 90
       12
 70
     1
 43
0.0
 10
11.96589402738178
 20
-49.50899946386529
 10
11.96589402738178
 20
-49.85451680035078
 10
12.22045082574263
 20
-49.85451680035078
 10
12.22045082574263
 20
-49.1641517346211
 10
11.96589402738178
 20
-49.1641517346211
 10
11.96589402738184
 20
-49.44505197232587
 10
11.89782284570927
 20
-49.44505197232587
 10
11.89782284570944
 20
-49.1641517346211
 10
11.64326604734842
 20
-49.1641517346211
 10
11.64326604734842
 20
-49.85451680035078
 10
11.89782284570936
 20
-49.85451680035078
 10
11.89782284570936
 20
-49.50899946386529
  0
LWPOLYLINE
  5
A06C4
102
{ACAD_REACTORS
330
AE0D0
102
}
330
1F
100
AcDbEntity
  8
HI Text
100
AcDbPolyline
 90
        4
 70
     1
 43
0.0
 10
12.9871344534109
 20
-49.85451680035078
 10
12.77855179776128
 20
-49.85451680035078
 10
12.77855179776128
 20
-49.36335988889322
 10
12.9871344534109
 20
-49.36335988889322
  0
LWPOLYLINE
  5
A06C5
102
{ACAD_REACTORS
330
AE0D0
102
}
330
1F
100
AcDbEntity
  8
HI Text
100
AcDbPolyline
 90
        9
 70
     1
 43
0.0
 10
13.21778204662081
 20
-49.41726327181392
 10
13.49821747942676
 20
-49.17036961945907
 10
13.49821747942676
 20
-49.36335988889322
 10
13.58191838458308
 20
-49.36335988889322
 10
13.58191838458314
 20
-49.41726327181392
 10
13.49821747942676
 20
-49.41726327181392
 10
13.49821747942676
 20
-49.85451680035078
 10
13.28963482377711
 20
-49.85451680035078
 10
13.28963482377711
 20
-49.41726327181392
  0
MTEXT
  5
A06C6
102
{ACAD_XDICTIONARY
360
A09BD
102
}
330
1F
100
AcDbEntity
  8
HI Text
100
AcDbMText
 10
45.19548899466707
 20
-48.0072976980449
 30
0.0
 40
0.9703124999999996
 41
33.6762967440676
 46
0.0
 71
     6
 72
     1
  1
{\fArial|b0|i0|c0|p34;INSERT FITTINGS - PVC TO POLY}
  7
Hunter
 73
     1
 44
1.0
  0
MTEXT
  5
A06C7
330
1F
100
AcDbEntity
  8
HI Text
100
AcDbMText
 10
41.40591525969137
 20
-49.40131920685637
 30
0.0
 40
0.5624999999999999
 41
0.0
 46
0.0
 71
     6
 72
     1
  1
{\fArial|b0|i0|c0|p34;NOT TO SCALE}
  7
Hunter
 73
     1
 44
1.0
  0
MTEXT
  5
A06C8
330
1F
100
AcDbEntity
  8
HI Text
100
AcDbMText
 10
10.35980817268731
 20
-48.8533187892898
 30
0.0
 40
1.455468749999999
 41
0.0
 46
0.0
 71
     6
 72
     1
  1
{\fArial|b0|i0|c0|p34;XX}
  7
Hunter
 73
     1
 44
1.0
  0
MTEXT
  5
A2287
102
{ACAD_XDICTIONARY
360
A2288
102
}
330
1F
100
AcDbEntity
  8
HI Text
100
AcDbMText
 10
15.35618702413487
 20
-49.1641517346211
 30
0.0
 40
0.9703124999999996
 41
33.6762967440676
 46
0.0
 71
     1
 72
     1
  1
{\fArial|b0|i0|c0|p34;HM.FIT.01}
  7
Hunter
 73
     1
 44
1.0
  0
MTEXT
  5
ABD13
330
1F
100
AcDbEntity
  8
HI Text
100
AcDbMText
 10
31.43396301853028
 20
-18.89699383275759
 30
0.0
 40
0.5
 41
0.0
 46
0.0
 71
     6
 72
     1
  1
{\fArial|b0|i0|c0|p34;1}
  7
Hunter
 73
     1
 44
1.0
  0
CIRCLE
  5
ABD14
330
1F
100
AcDbEntity
  8
HI Text
100
AcDbCircle
 10
31.36326708244798
 20
-20.79742284184387
 30
0.0
 40
0.511352622321557
  0
MTEXT
  5
ABD15
330
1F
100
AcDbEntity
  8
HI Text
100
AcDbMText
 10
31.43396301853028
 20
-20.76706934018959
 30
0.0
 40
0.5
 41
0.0
 46
0.0
 71
     6
 72
     1
  1
{\fArial|b0|i0|c0|p34;2}
  7
Hunter
 73
     1
 44
1.0
  0
CIRCLE
  5
ABD16
330
1F
100
AcDbEntity
  8
HI Text
100
AcDbCircle
 10
31.36326708244798
 20
-18.92734733441186
 30
0.0
 40
0.511352622321557
  0
LWPOLYLINE
  5
ABD17
330
1F
100
AcDbEntity
  8
HI Text
100
AcDbPolyline
 90
        2
 70
     0
 43
0.0
 10
30.59777442718263
 20
-18.20735342700108
 10
41.35708828717278
 20
-18.20735342700108
  0
MTEXT
  5
ABD18
330
1F
100
AcDbEntity
  8
HI Text
100
AcDbMText
 10
33.73223364326424
 20
-17.6492072259635
 30
0.0
 40
0.7499999999999999
 41
0.0
 46
0.0
 71
     6
 72
     1
  1
{\fArial|b0|i0|c0|p34;LEGEND:}
  7
Hunter
 73
     1
 44
1.0
  0
MTEXT
  5
ABD19
330
1F
100
AcDbEntity
  8
HI Text
100
AcDbMText
 10
31.98407581518457
 20
-18.61098555701673
 30
0.0
 40
0.5
 41
14.36766712141882
 46
0.6558663028649381
 71
     1
 72
     1
  1
\A1;{\fArial|b0|i0|c0|p34;PROFESSIONAL LANDSCAPE DRIPLINE}
  7
Hunter
 73
     1
 44
1.0
  0
CIRCLE
  5
ABD1B
330
1F
100
AcDbEntity
  8
HI Text
100
AcDbCircle
 10
31.36326708244798
 20
-22.7848685433385
 30
0.0
 40
0.511352622321557
  0
MTEXT
  5
ABD1C
330
1F
100
AcDbEntity
  8
HI Text
100
AcDbMText
 10
31.43396301853028
 20
-22.75451504168423
 30
0.0
 40
0.5
 41
0.2318212824010922
 46
0.0
 71
     6
 72
     1
  1
{\fArial|b0|i0|c0|p34;3}
  7
Hunter
 73
     1
 44
1.0
  0
MTEXT
  5
ABD2F
330
1F
100
AcDbEntity
  8
HI Text
100
AcDbMText
 10
31.98408899115906
 20
-20.51528998078342
 30
0.0
 40
0.5
 41
14.36766712141882
 46
0.0
 71
     1
 72
     1
  1
\A1;{\fArial|b0|i0|c0|p34;PLD FITTING}
  7
Hunter
 73
     1
 44
1.0
  0
MTEXT
  5
ABD30
330
1F
100
AcDbEntity
  8
HI Text
100
AcDbMText
 10
31.98408899115904
 20
-22.50639307469379
 30
0.0
 40
0.5
 41
14.36766712141882
 46
0.0
 71
     1
 72
     1
  1
\A1;{\fArial|b0|i0|c0|p34;PVC LATERAL - AS PER PLAN}
  7
Hunter
 73
     1
 44
1.0
  0
MTEXT
  5
ADE16
330
1F
100
AcDbEntity
  8
HI Text
100
AcDbMText
 10
28.41693493216812
 20
-17.8824949775733
 30
0.0
 40
0.5
 41
0.0
 46
0.0
 71
     6
 72
     1
  1
{\fArial|b0|i0|c0|p34;1}
  7
Hunter
 73
     1
 44
1.0
  0
LEADER
  5
ADE17
330
1F
100
AcDbEntity
  8
HI Text
100
AcDbLeader
  3
LandMatters
 76
     3
 10
15.01905196131164
 20
-22.19115328251786
 30
0.0
 10
27.2271685733335
 20
-17.91284847922755
 30
0.0
 10
27.82260396206502
 20
-17.91284847922759
 30
0.0
211
-0.0000000000000002
221
-1.0
231
0.0
1001
ACAD
1000
DSTYLE
1002
{
1070
    41
1040
0.5
1002
}
  0
CIRCLE
  5
ADE18
330
1F
100
AcDbEntity
  8
HI Text
100
AcDbCircle
 10
28.33395658438659
 20
-17.91284847922758
 30
0.0
 40
0.511352622321557
  0
MTEXT
  5
ADE19
330
1F
100
AcDbEntity
  8
HI Text
100
AcDbMText
 10
28.43222527320958
 20
-18.90808561683504
 30
0.0
 40
0.5
 41
0.0
 46
0.0
 71
     6
 72
     1
  1
{\fArial|b0|i0|c0|p34;2}
  7
Hunter
 73
     1
 44
1.0
  0
LEADER
  5
ADE1A
330
1F
100
AcDbEntity
  8
HI Text
100
AcDbLeader
  3
LandMatters
 76
     3
 10
18.36674461251142
 20
-22.81905540666424
 30
0.0
 10
27.21597440099876
 20
-18.93843911848929
 30
0.0
 10
27.83789430310648
 20
-18.93843911848932
 30
0.0
211
-0.0000000000000002
221
-1.0
231
0.0
1001
ACAD
1000
DSTYLE
1002
{
1070
    41
1040
0.5
1002
}
  0
CIRCLE
  5
ADE1B
330
1F
100
AcDbEntity
  8
HI Text
100
AcDbCircle
 10
28.34924692542805
 20
-18.93843911848931
 30
0.0
 40
0.511352622321557
  0
MTEXT
  5
ADE1C
330
1F
100
AcDbEntity
  8
HI Text
100
AcDbMText
 10
28.44751561425105
 20
-19.93367625609677
 30
0.0
 40
0.5
 41
0.5059889325313582
 46
0.0
 71
     6
 72
     1
  1
{\fArial|b0|i0|c0|p34;3}
  7
Hunter
 73
     1
 44
1.0
  0
CIRCLE
  5
ADE1D
330
1F
100
AcDbEntity
  8
HI Text
100
AcDbCircle
 10
28.36453726646951
 20
-19.96402975775105
 30
0.0
 40
0.511352622321557
  0
LEADER
  5
ADE1E
330
1F
100
AcDbEntity
  8
HI Text
100
AcDbLeader
  3
LandMatters
 76
     3
 10
21.62419893858031
 20
-22.81905540666424
 30
0.0
 10
27.23126474204022
 20
-19.96402975775101
 30
0.0
 10
27.85318464414795
 20
-19.96402975775105
 30
0.0
211
-0.0000000000000002
221
-1.0
231
0.0
1001
ACAD
1000
DSTYLE
1002
{
1070
    41
1040
0.5
1002
}
  0
HATCH
  5
AE0D0
330
1F
100
AcDbEntity
  8
HI Text
100
AcDbHatch
 10
0.0
 20
0.0
 30
0.0
210
0.0
220
0.0
230
1.0
  2
SOLID
 70
     1
 71
     1
 91
       10
 92
        1
 93
        9
 72
     1
 10
13.21778204662081
 20
-49.41726327181392
 11
13.49821747942676
 21
-49.17036961945907
 72
     1
 10
13.49821747942676
 20
-49.17036961945907
 11
13.49821747942676
 21
-49.36335988889322
 72
     1
 10
13.49821747942676
 20
-49.36335988889322
 11
13.58191838458308
 21
-49.36335988889322
 72
     1
 10
13.58191838458308
 20
-49.36335988889322
 11
13.58191838458314
 21
-49.41726327181392
 72
     1
 10
13.58191838458314
 20
-49.41726327181392
 11
13.49821747942676
 21
-49.41726327181392
 72
     1
 10
13.49821747942676
 20
-49.41726327181392
 11
13.49821747942676
 21
-49.85451680035078
 72
     1
 10
13.49821747942676
 20
-49.85451680035078
 11
13.28963482377711
 21
-49.85451680035078
 72
     1
 10
13.28963482377711
 20
-49.85451680035078
 11
13.28963482377711
 21
-49.41726327181392
 72
     1
 10
13.28963482377711
 20
-49.41726327181392
 11
13.21778204662081
 21
-49.41726327181392
 97
        1
330
A06C5
 92
        1
 93
        4
 72
     1
 10
12.9871344534109
 20
-49.85451680035078
 11
12.77855179776128
 21
-49.85451680035078
 72
     1
 10
12.77855179776128
 20
-49.85451680035078
 11
12.77855179776128
 21
-49.36335988889322
 72
     1
 10
12.77855179776128
 20
-49.36335988889322
 11
12.9871344534109
 21
-49.36335988889322
 72
     1
 10
12.9871344534109
 20
-49.36335988889322
 11
12.9871344534109
 21
-49.85451680035078
 97
        1
330
A06C4
 92
        1
 93
       12
 72
     1
 10
11.96589402738178
 20
-49.50899946386529
 11
11.96589402738178
 21
-49.85451680035078
 72
     1
 10
11.96589402738178
 20
-49.85451680035078
 11
12.22045082574263
 21
-49.85451680035078
 72
     1
 10
12.22045082574263
 20
-49.85451680035078
 11
12.22045082574263
 21
-49.1641517346211
 72
     1
 10
12.22045082574263
 20
-49.1641517346211
 11
11.96589402738178
 21
-49.1641517346211
 72
     1
 10
11.96589402738178
 20
-49.1641517346211
 11
11.96589402738184
 21
-49.44505197232587
 72
     1
 10
11.96589402738184
 20
-49.44505197232587
 11
11.89782284570927
 21
-49.44505197232587
 72
     1
 10
11.89782284570927
 20
-49.44505197232587
 11
11.89782284570944
 21
-49.1641517346211
 72
     1
 10
11.89782284570944
 20
-49.1641517346211
 11
11.64326604734842
 21
-49.1641517346211
 72
     1
 10
11.64326604734842
 20
-49.1641517346211
 11
11.64326604734842
 21
-49.85451680035078
 72
     1
 10
11.64326604734842
 20
-49.85451680035078
 11
11.89782284570936
 21
-49.85451680035078
 72
     1
 10
11.89782284570936
 20
-49.85451680035078
 11
11.89782284570936
 21
-49.50899946386529
 72
     1
 10
11.89782284570936
 20
-49.50899946386529
 11
11.96589402738178
 21
-49.50899946386529
 97
        1
330
A06C3
 92
        1
 93
        6
 72
     2
 10
13.78154542646731
 20
-49.49844943609512
 40
0.3557288469148716
 50
269.999999999855
 51
311.0226094260925
 73
     1
 72
     1
 10
14.01503047162058
 20
-49.76682929043811
 11
14.01503047161069
 21
-49.70175337007184
 72
     2
 10
13.78154542645696
 20
-49.47099553920776
 40
0.3282749500274638
 50
44.66341740663149
 51
94.35762720154725
 73
     0
 72
     1
 10
13.75660255672975
 20
-49.79832151750051
 11
13.75660255672912
 21
-49.36369840623405
 72
     2
 10
13.76949249612388
 20
-49.60893834462199
 40
0.2455784557287565
 50
93.00872752319534
 51
266.9912724769641
 73
     1
 72
     1
 10
13.7566025567298
 20
-49.85417828300997
 11
13.78154542646641
 21
-49.85417828301
 97
        1
330
A06C2
 92
        1
 93
        4
 72
     1
 10
14.04782524548213
 20
-49.85451680034346
 11
14.04782524548213
 21
-49.3633598888859
 72
     1
 10
14.04782524548213
 20
-49.3633598888859
 11
14.25640790113178
 21
-49.3633598888859
 72
     1
 10
14.25640790113178
 20
-49.3633598888859
 11
14.25640790113178
 21
-49.85451680034346
 72
     1
 10
14.25640790113178
 20
-49.85451680034346
 11
14.04782524548213
 21
-49.85451680034346
 97
        1
330
A06C1
 92
        1
 93
        5
 72
     1
 10
13.03411300698403
 20
-49.36335988889322
 11
13.03411300698403
 21
-49.85451680035078
 72
     1
 10
13.03411300698403
 20
-49.85451680035078
 11
13.24269566263365
 21
-49.85451680035078
 72
     1
 10
13.24269566263365
 20
-49.85451680035078
 11
13.24269566263365
 21
-49.51832907198206
 72
     2
 10
13.08772647954484
 20
-49.51832907198206
 40
0.1549691830888094
 50
0.0
 51
90.0
 73
     1
 72
     1
 10
13.08772647954484
 20
-49.36335988889325
 11
13.03411300698403
 21
-49.36335988889322
 97
        1
330
A06C0
 92
        1
 93
        5
 72
     1
 10
12.52299058853851
 20
-49.36335988889322
 11
12.73157324418819
 21
-49.36335988889322
 72
     1
 10
12.73157324418819
 20
-49.36335988889322
 11
12.73157324418819
 21
-49.69954761726191
 72
     2
 10
12.57660406109933
 20
-49.69954761726188
 40
0.1549691830888591
 50
0.0000000000131293
 51
90.00000000001312
 73
     0
 72
     1
 10
12.57660406109929
 20
-49.85451680035073
 11
12.52299058853851
 21
-49.85451680035078
 72
     1
 10
12.52299058853851
 20
-49.85451680035078
 11
12.52299058853851
 21
-49.36335988889322
 97
        1
330
A06BF
 92
        1
 93
        5
 72
     1
 10
12.42239856240457
 20
-49.85451680035078
 11
12.47601203496535
 21
-49.85451680035078
 72
     1
 10
12.47601203496535
 20
-49.85451680035078
 11
12.47601203496535
 21
-49.36335988889322
 72
     1
 10
12.47601203496535
 20
-49.36335988889322
 11
12.26742937931576
 21
-49.36335988889322
 72
     1
 10
12.26742937931576
 20
-49.36335988889322
 11
12.26742937931576
 21
-49.69954761726191
 72
     2
 10
12.4223985624046
 20
-49.69954761726194
 40
0.1549691830888378
 50
179.9999999999895
 51
269.9999999999895
 73
     1
 97
        1
330
A06BE
 92
        1
 93
        5
 72
     1
 10
14.02435566490735
 20
-49.60893834462168
 11
14.02435566491468
 21
-49.55098789851589
 72
     2
 10
13.81885134510126
 20
-49.56884371189433
 40
0.206278587190675
 50
4.965831443762698
 51
83.9913280435104
 73
     1
 72
     1
 10
13.84044437867479
 20
-49.36369840623399
 11
13.80648829620296
 21
-49.36369840622048
 72
     1
 10
13.80648829620296
 20
-49.36369840622048
 11
13.80648829620296
 21
-49.60893834462168
 72
     1
 10
13.80648829620296
 20
-49.60893834462168
 11
14.02435566490735
 21
-49.60893834462168
 97
        1
330
A06BD
 92
        1
 93
        1
 72
     2
 10
14.37948155883956
 20
-49.46296396602199
 40
0.0996040771360683
 50
0.0
 51
360.0
 73
     1
 97
        1
330
A06BC
 75
     1
 76
     1
 98
        1
 10
0.0
 20
0.0
450
        0
451
        0
460
0.0
461
0.0
452
        0
462
1.0
453
        2
463
0.0
 63
     5
421
      255
463
1.0
 63
     2
421
 16776960
470
LINEAR
1001
GradientColor1ACI
1070
     5
1001
GradientColor2ACI
1070
     2
1001
ACAD
1010
11.64326604734842
1020
-49.85451680035078
1030
0.0
  0
LINE
  5
AE1F3
102
{ACAD_REACTORS
330
AE640
102
}
330
1F
100
AcDbEntity
  8
HI Detail 3
100
AcDbLine
 10
18.94838012029935
 20
-21.75321454644905
 30
0.0
 11
18.94838012029934
 21
-23.88489626687943
 31
0.0
  0
LINE
  5
AE1F5
102
{ACAD_REACTORS
330
AE640
102
}
330
1F
100
AcDbEntity
  8
HI Detail 3
100
AcDbLine
 10
21.62419893858031
 20
-23.88489626687942
 30
0.0
 11
18.94838012029934
 21
-23.88489626687943
 31
0.0
  0
LINE
  5
AE1F8
102
{ACAD_REACTORS
330
AE640
102
}
330
1F
100
AcDbEntity
  8
HI Deatil 1
100
AcDbLine
 10
18.47117589740888
 20
-23.79673743688961
 30
0.0
 11
18.47117589740888
 21
-21.84137337643887
 31
0.0
  0
LINE
  5
AE1F9
102
{ACAD_REACTORS
330
AE640
102
}
330
1F
100
AcDbEntity
  8
HI Deatil 1
100
AcDbLine
 10
18.6646696539393
 20
-21.84137337643887
 30
0.0
 11
18.47117589740888
 21
-21.84137337643887
 31
0.0
  0
LINE
  5
AE1FA
102
{ACAD_REACTORS
330
AE640
102
}
330
1F
100
AcDbEntity
  8
HI Deatil 1
100
AcDbLine
 10
18.6646696539393
 20
-23.79673743688961
 30
0.0
 11
18.6646696539393
 21
-21.84137337643887
 31
0.0
  0
LINE
  5
AE1FB
102
{ACAD_REACTORS
330
AE640
102
}
330
1F
100
AcDbEntity
  8
HI Deatil 1
100
AcDbLine
 10
18.6646696539393
 20
-23.64936355118093
 30
0.0
 11
18.94838012029935
 21
-23.64936355118093
 31
0.0
  0
LINE
  5
AE1FC
102
{ACAD_REACTORS
330
AE640
102
}
330
1F
100
AcDbEntity
  8
HI Deatil 2
100
AcDbLine
 10
18.86527198451812
 20
-21.98874726214754
 30
0.0
 11
18.86527198451812
 21
-23.64936355118093
 31
0.0
  0
LINE
  5
AE1FD
102
{ACAD_REACTORS
330
AE640
102
}
330
1F
100
AcDbEntity
  8
HI Deatil 2
100
AcDbLine
 10
18.75756895894453
 20
-21.98874726214755
 30
0.0
 11
18.75756895894911
 21
-23.64936355118093
 31
0.0
  0
LINE
  5
AE1FE
102
{ACAD_REACTORS
330
AE640
102
}
330
1F
100
AcDbEntity
  8
HI Deatil 1
100
AcDbLine
 10
18.6646696539393
 20
-23.79673743688961
 30
0.0
 11
18.47117589740888
 21
-23.79673743688961
 31
0.0
  0
LINE
  5
AE1FF
102
{ACAD_REACTORS
330
AE640
102
}
330
1F
100
AcDbEntity
  8
HI Deatil 1
100
AcDbLine
 10
18.17325085598101
 20
-23.79673743688961
 30
0.0
 11
18.17325085598101
 21
-23.66830128967087
 31
0.0
  0
LINE
  5
AE200
102
{ACAD_REACTORS
330
AE640
102
}
330
1F
100
AcDbEntity
  8
HI Deatil 1
100
AcDbLine
 10
18.36674461251142
 20
-21.84137337643887
 30
0.0
 11
18.17325085598101
 21
-21.84137337643887
 31
0.0
  0
LINE
  5
AE201
102
{ACAD_REACTORS
330
AE640
102
}
330
1F
100
AcDbEntity
  8
HI Deatil 1
100
AcDbLine
 10
18.36674461251142
 20
-23.79673743688961
 30
0.0
 11
18.36674461251142
 21
-21.84137337643887
 31
0.0
  0
LINE
  5
AE202
102
{ACAD_REACTORS
330
AE640
102
}
330
1F
100
AcDbEntity
  8
HI Deatil 1
100
AcDbLine
 10
18.36674461251142
 20
-23.79673743688961
 30
0.0
 11
18.17325085598101
 21
-23.79673743688961
 31
0.0
  0
LINE
  5
AE203
102
{ACAD_REACTORS
330
AE640
102
}
330
1F
100
AcDbEntity
  8
HI Deatil 2
100
AcDbLine
 10
18.36674461251142
 20
-22.74238431271434
 30
0.0
 11
18.47117589740888
 21
-22.74238431271434
 31
0.0
  0
LINE
  5
AE204
102
{ACAD_REACTORS
330
AE640
102
}
330
1F
100
AcDbEntity
  8
HI Deatil 2
100
AcDbLine
 10
18.36674461251142
 20
-22.89572650061414
 30
0.0
 11
18.47117589740888
 21
-22.89572650061414
 31
0.0
  0
LINE
  5
AE205
102
{ACAD_REACTORS
330
AE640
102
}
330
1F
100
AcDbEntity
  8
HI Deatil 1
100
AcDbLine
 10
18.36674461251142
 20
-21.92084185926379
 30
0.0
 11
18.47117589740888
 21
-21.92084185926379
 31
0.0
  0
LINE
  5
AE206
102
{ACAD_REACTORS
330
AE640
102
}
330
1F
100
AcDbEntity
  8
HI Deatil 1
100
AcDbLine
 10
18.36674461251142
 20
-23.71726895406468
 30
0.0
 11
18.47117589740888
 21
-23.71726895406468
 31
0.0
  0
LINE
  5
AE207
102
{ACAD_REACTORS
330
AE640
102
}
330
1F
100
AcDbEntity
  8
HI Deatil 1
100
AcDbLine
 10
18.6646696539393
 20
-21.98874726214754
 30
0.0
 11
18.94838012029935
 21
-21.98874726214754
 31
0.0
  0
LINE
  5
AE211
102
{ACAD_REACTORS
330
AE640
102
}
330
1F
100
AcDbEntity
  8
HI Deatil 1
100
AcDbLine
 10
17.39933815055791
 20
-23.40882785187454
 30
0.0
 11
17.51057897471706
 21
-23.40882785187454
 31
0.0
  0
LINE
  5
AE212
102
{ACAD_REACTORS
330
AE640
102
}
330
1F
100
AcDbEntity
  8
HI Deatil 1
100
AcDbLine
 10
17.39933815055791
 20
-23.40882785187454
 30
0.0
 11
17.39933815055791
 21
-23.3943013435047
 31
0.0
  0
LINE
  5
AE213
102
{ACAD_REACTORS
330
AE640
102
}
330
1F
100
AcDbEntity
  8
HI Deatil 1
100
AcDbLine
 10
17.51057897471706
 20
-23.40882785187454
 30
0.0
 11
17.51057897471706
 21
-23.31160280681757
 31
0.0
  0
LINE
  5
AE214
102
{ACAD_REACTORS
330
AE640
102
}
330
1F
100
AcDbEntity
  8
HI Deatil 1
100
AcDbLine
 10
17.39933815055791
 20
-22.17687396377469
 30
0.0
 11
17.51057897471706
 21
-22.17687396377469
 31
0.0
  0
LINE
  5
AE215
102
{ACAD_REACTORS
330
AE640
102
}
330
1F
100
AcDbEntity
  8
HI Deatil 1
100
AcDbLine
 10
18.17325085598098
 20
-23.31160280681757
 30
0.0
 11
17.51057897471706
 21
-23.31160280681757
 31
0.0
  0
LINE
  5
AE216
102
{ACAD_REACTORS
330
AE640
102
}
330
1F
100
AcDbEntity
  8
HI Deatil 1
100
AcDbLine
 10
18.17325085598101
 20
-22.27409900883145
 30
0.0
 11
17.51057897471706
 21
-22.27409900883145
 31
0.0
  0
LINE
  5
AE3CE
102
{ACAD_REACTORS
330
AE640
102
}
330
1F
100
AcDbEntity
  8
HI Deatil 1
100
AcDbLine
 10
17.39933815055791
 20
-22.19115328251786
 30
0.0
 11
17.39933815055791
 21
-22.17687396377469
 31
0.0
  0
LINE
  5
AE3CF
102
{ACAD_REACTORS
330
AE640
102
}
330
1F
100
AcDbEntity
  8
HI Deatil 1
100
AcDbLine
 10
17.51057897471706
 20
-22.27409900883145
 30
0.0
 11
17.51057897471706
 21
-22.17687396377469
 31
0.0
  0
LINE
  5
AE3D0
102
{ACAD_REACTORS
330
AE640
102
}
330
1F
100
AcDbEntity
  8
HI Deatil 1
100
AcDbLine
 10
17.39933815055791
 20
-23.3943013435047
 30
0.0
 11
17.39933815055791
 21
-22.19115328251786
 31
0.0
  0
LINE
  5
AE3D1
102
{ACAD_REACTORS
330
AE640
102
}
330
1F
100
AcDbEntity
  8
HI Deatil 1
100
AcDbLine
 10
17.51057897471706
 20
-23.31160280681757
 30
0.0
 11
17.51057897471706
 21
-22.27409900883145
 31
0.0
  0
LINE
  5
AE3D3
102
{ACAD_REACTORS
330
AE640
102
}
330
1F
100
AcDbEntity
  8
HI Deatil 1
100
AcDbLine
 10
18.17327280104635
 20
-23.66830128967087
 30
0.0
 11
18.17325085598098
 21
-23.31160280681757
 31
0.0
  0
LINE
  5
AE3D4
102
{ACAD_REACTORS
330
AE640
102
}
330
1F
100
AcDbEntity
  8
HI Deatil 1
100
AcDbLine
 10
18.17326851638276
 20
-23.31160280660543
 30
0.0
 11
18.17325605388286
 21
-22.274098995092
 31
0.0
  0
INSERT
  5
AE3DA
330
1F
100
AcDbEntity
  8
0
100
AcDbBlockReference
  2
break
 10
0.0
 20
0.0
 30
0.0
  0
LINE
  5
AE3E9
102
{ACAD_REACTORS
330
AE640
102
}
330
1F
100
AcDbEntity
  8
HI Deatil 1
100
AcDbLine
 10
18.17325085598101
 20
-22.27409900883145
 30
0.0
 11
18.17325085598101
 21
-22.02931157891683
 31
0.0
  0
LINE
  5
AE3EA
102
{ACAD_REACTORS
330
AE640
102
}
330
1F
100
AcDbEntity
  8
HI Deatil 1
100
AcDbLine
 10
18.17325085598101
 20
-22.02931157891683
 30
0.0
 11
18.17325085598101
 21
-21.84137337643887
 31
0.0
  0
LINE
  5
AE49C
102
{ACAD_REACTORS
330
AE640
102
}
330
1F
100
AcDbEntity
  8
HI Deatil 2
100
AcDbLine
 10
17.39933815055791
 20
-22.19115328251786
 30
0.0
 11
16.9750475835945
 21
-22.19115328251786
 31
0.0
  0
LINE
  5
AE49D
102
{ACAD_REACTORS
330
AE640
102
}
330
1F
100
AcDbEntity
  8
HI Deatil 2
100
AcDbLine
 10
16.9750475835945
 20
-22.19115328251786
 30
0.0
 11
16.9750475835945
 21
-22.02931157891683
 31
0.0
  0
LINE
  5
AE49E
102
{ACAD_REACTORS
330
AE640
102
}
330
1F
100
AcDbEntity
  8
HI Deatil 2
100
AcDbLine
 10
16.9750475835945
 20
-22.02931157891683
 30
0.0
 11
16.9750475835945
 21
-22.02599494037798
 31
0.0
  0
ARC
  5
AE49F
102
{ACAD_REACTORS
330
AE640
102
}
330
1F
100
AcDbEntity
  8
HI Deatil 2
100
AcDbCircle
 10
16.9650475835945
 20
-22.02599494037798
 30
0.0
 40
0.0100000000000051
100
AcDbArc
 50
0.0
 51
126.5327755904135
  0
LINE
  5
AE4A0
102
{ACAD_REACTORS
330
AE640
102
}
330
1F
100
AcDbEntity
  8
HI Deatil 2
100
AcDbLine
 10
16.95909475830186
 20
-22.01795977572283
 30
0.0
 11
16.94377201602189
 21
-22.02931157891683
 31
0.0
  0
LINE
  5
AE4A1
102
{ACAD_REACTORS
330
AE640
102
}
330
1F
100
AcDbEntity
  8
HI Deatil 2
100
AcDbLine
 10
16.94377201602189
 20
-22.02931157891683
 30
0.0
 11
16.72531696777548
 21
-22.19115328251786
 31
0.0
  0
LINE
  5
AE4A2
102
{ACAD_REACTORS
330
AE640
102
}
330
1F
100
AcDbEntity
  8
HI Deatil 2
100
AcDbLine
 10
16.72531696777548
 20
-22.19115328251786
 30
0.0
 11
14.49130973960046
 21
-22.19115328251786
 31
0.0
  0
LINE
  5
AE4A3
102
{ACAD_REACTORS
330
AE640
102
}
330
1F
100
AcDbEntity
  8
HI Deatil 2
100
AcDbLine
 10
12.521603043252
 20
-22.19115328251786
 30
0.0
 11
10.9423023367834
 21
-22.19115328251786
 31
0.0
  0
LINE
  5
AE4A4
102
{ACAD_REACTORS
330
AE640
102
}
330
1F
100
AcDbEntity
  8
HI Deatil 2
100
AcDbLine
 10
17.3993381505579
 20
-23.3943013435047
 30
0.0
 11
16.9750475835945
 21
-23.3943013435047
 31
0.0
  0
LINE
  5
AE4A5
102
{ACAD_REACTORS
330
AE640
102
}
330
1F
100
AcDbEntity
  8
HI Deatil 2
100
AcDbLine
 10
16.9750475835945
 20
-23.3943013435047
 30
0.0
 11
16.9750475835945
 21
-23.55945968564458
 31
0.0
  0
ARC
  5
AE4A6
102
{ACAD_REACTORS
330
AE640
102
}
330
1F
100
AcDbEntity
  8
HI Deatil 2
100
AcDbCircle
 10
16.9650475835945
 20
-23.55945968564458
 30
0.0
 40
0.0100000000000051
100
AcDbArc
 50
233.4672244095863
 51
0.0
  0
LINE
  5
AE4A7
102
{ACAD_REACTORS
330
AE640
102
}
330
1F
100
AcDbEntity
  8
HI Deatil 2
100
AcDbLine
 10
16.95909475830186
 20
-23.56749485029974
 30
0.0
 11
16.72531696777548
 21
-23.3943013435047
 31
0.0
  0
LINE
  5
AE4A8
102
{ACAD_REACTORS
330
AE640
102
}
330
1F
100
AcDbEntity
  8
HI Deatil 2
100
AcDbLine
 10
16.72531696777548
 20
-23.3943013435047
 30
0.0
 11
14.4913097396005
 21
-23.3943013435047
 31
0.0
  0
LINE
  5
AE4A9
102
{ACAD_REACTORS
330
AE640
102
}
330
1F
100
AcDbEntity
  8
HI Deatil 2
100
AcDbLine
 10
12.52160304325204
 20
-23.3943013435047
 30
0.0
 11
10.94230233678334
 21
-23.3943013435047
 31
0.0
  0
LINE
  5
AE4AA
102
{ACAD_REACTORS
330
AE640
102
}
330
1F
100
AcDbEntity
  8
HI Deatil 1
100
AcDbLine
 10
16.35125761342606
 20
-22.27409900883144
 30
0.0
 11
16.35125761342608
 21
-23.31160280681757
 31
0.0
  0
LINE
  5
AE4AB
102
{ACAD_REACTORS
330
AE640
102
}
330
1F
100
AcDbEntity
  8
HI Deatil 1
100
AcDbLine
 10
16.92150629831364
 20
-22.13772229489298
 30
0.0
 11
16.92150629831364
 21
-23.44797952075625
 31
0.0
  0
LINE
  5
AE4AC
102
{ACAD_REACTORS
330
AE640
102
}
330
1F
100
AcDbEntity
  8
HI Deatil 1
100
AcDbLine
 10
16.92150629831364
 20
-23.44797952075625
 30
0.0
 11
16.73742406882501
 21
-23.31160280681756
 31
0.0
  0
LINE
  5
AE4AD
102
{ACAD_REACTORS
330
AE640
102
}
330
1F
100
AcDbEntity
  8
HI Deatil 1
100
AcDbLine
 10
16.73742406882501
 20
-23.31160280681756
 30
0.0
 11
16.73742406882501
 21
-22.27409900883144
 31
0.0
  0
LINE
  5
AE4AE
102
{ACAD_REACTORS
330
AE640
102
}
330
1F
100
AcDbEntity
  8
HI Deatil 1
100
AcDbLine
 10
16.92150629831364
 20
-22.13772229489296
 30
0.0
 11
16.73742406882501
 21
-22.27409900883144
 31
0.0
  0
LINE
  5
AE4AF
102
{ACAD_REACTORS
330
AE640
102
}
330
1F
100
AcDbEntity
  8
HI Deatil 1
100
AcDbLine
 10
16.73742406882501
 20
-23.31160280681756
 30
0.0
 11
16.35125761342606
 21
-23.31160280681757
 31
0.0
  0
LINE
  5
AE4B0
102
{ACAD_REACTORS
330
AE640
102
}
330
1F
100
AcDbEntity
  8
HI Deatil 1
100
AcDbLine
 10
16.73742406882501
 20
-22.27409900883144
 30
0.0
 11
16.35125761342606
 21
-22.27409900883144
 31
0.0
  0
LINE
  5
AE4B1
102
{ACAD_REACTORS
330
AE640
102
}
330
1F
100
AcDbEntity
  8
HI Deatil 1
100
AcDbLine
 10
17.39933815055791
 20
-23.31160280681756
 30
0.0
 11
16.92150629831364
 21
-23.31160280681757
 31
0.0
  0
LINE
  5
AE4B2
102
{ACAD_REACTORS
330
AE640
102
}
330
1F
100
AcDbEntity
  8
HI Deatil 1
100
AcDbLine
 10
17.39933815055791
 20
-22.27409900883144
 30
0.0
 11
16.92150629831364
 21
-22.27409900883144
 31
0.0
  0
LINE
  5
AE4B3
102
{ACAD_REACTORS
330
AE640
102
}
330
1F
100
AcDbEntity
  8
HI Deatil 2
100
AcDbLine
 10
12.88803601865386
 20
-22.19115328251786
 30
0.0
 11
14.12487676419857
 21
-22.19115328251786
 31
0.0
  0
LWPOLYLINE
  5
AE4B4
102
{ACAD_REACTORS
330
AE640
102
}
330
1F
100
AcDbEntity
  8
HI Deatil 2
100
AcDbPolyline
 90
        2
 70
     0
 43
0.0
 10
12.88803601865386
 20
-22.19115328251786
 10
14.12487676419857
 20
-22.19115328251786
  0
LWPOLYLINE
  5
AE4B5
102
{ACAD_REACTORS
330
AE640
102
}
330
1F
100
AcDbEntity
  8
HI Deatil 2
100
AcDbPolyline
 90
        2
 70
     0
 43
0.0
 10
12.88803601865389
 20
-23.3943013435047
 10
14.12487676419861
 20
-23.3943013435047
  0
LWPOLYLINE
  5
AE4B6
102
{ACAD_REACTORS
330
AE640
102
}
330
1F
100
AcDbEntity
  8
HI Deatil 2
100
AcDbPolyline
 90
        2
 70
     0
 43
0.0
 10
12.521603043252
 20
-22.19115328251786
 10
12.61841314263945
 20
-22.11176230787711
  0
LWPOLYLINE
  5
AE4B7
102
{ACAD_REACTORS
330
AE640
102
}
330
1F
100
AcDbEntity
  8
HI Deatil 2
100
AcDbPolyline
 90
        2
 70
     0
 43
0.0
 10
12.88803601865386
 20
-22.19115328251786
 10
12.78878196626713
 20
-22.11107969007478
  0
ARC
  5
AE4B8
102
{ACAD_REACTORS
330
AE640
102
}
330
1F
100
AcDbEntity
  8
HI Deatil 2
100
AcDbCircle
 10
12.70404429182563
 20
-22.22291841426555
 30
0.0
 40
0.1403152653790171
100
AcDbArc
 50
52.84961315188585
 51
127.6095190880154
  0
LWPOLYLINE
  5
AE4B9
102
{ACAD_REACTORS
330
AE640
102
}
330
1F
100
AcDbEntity
  8
HI HATCH FILL
100
AcDbPolyline
 90
        2
 70
     0
 43
0.0
 10
12.70348209431073
 20
-22.3946998339957
 10
12.70348209431073
 20
-23.19201866352891
  0
LWPOLYLINE
  5
AE4BA
102
{ACAD_REACTORS
330
AE640
102
}
330
1F
100
AcDbEntity
  8
HI Deatil 2
100
AcDbPolyline
 90
        2
 70
     0
 43
0.0
 10
12.52160304325204
 20
-23.3943013435047
 10
12.61841314263949
 20
-23.47369231814544
  0
LWPOLYLINE
  5
AE4BB
102
{ACAD_REACTORS
330
AE640
102
}
330
1F
100
AcDbEntity
  8
HI Deatil 2
100
AcDbPolyline
 90
        2
 70
     0
 43
0.0
 10
12.88803601865389
 20
-23.3943013435047
 10
12.78878196626717
 20
-23.47437493594779
  0
ARC
  5
AE4BC
102
{ACAD_REACTORS
330
AE640
102
}
330
1F
100
AcDbEntity
  8
HI Deatil 2
100
AcDbCircle
 10
12.70404429182567
 20
-23.36253621175702
 30
0.0
 40
0.1403152653790171
100
AcDbArc
 50
232.3904809119843
 51
307.1503868481141
  0
LWPOLYLINE
  5
AE4BD
102
{ACAD_REACTORS
330
AE640
102
}
330
1F
100
AcDbEntity
  8
HI Deatil 2
100
AcDbPolyline
 90
        2
 70
     0
 43
0.0
 10
14.12487676419857
 20
-22.19115328251786
 10
14.2216868635861
 20
-22.11176230787711
  0
LWPOLYLINE
  5
AE4BE
102
{ACAD_REACTORS
330
AE640
102
}
330
1F
100
AcDbEntity
  8
HI Deatil 2
100
AcDbPolyline
 90
        2
 70
     0
 43
0.0
 10
14.49130973960046
 20
-22.19115328251786
 10
14.39205568721374
 20
-22.11107969007478
  0
ARC
  5
AE4BF
102
{ACAD_REACTORS
330
AE640
102
}
330
1F
100
AcDbEntity
  8
HI Deatil 2
100
AcDbCircle
 10
14.30731801277224
 20
-22.22291841426555
 30
0.0
 40
0.1403152653790171
100
AcDbArc
 50
52.84961315188585
 51
127.6095190880154
  0
LWPOLYLINE
  5
AE4C0
102
{ACAD_REACTORS
330
AE640
102
}
330
1F
100
AcDbEntity
  8
HI HATCH FILL
100
AcDbPolyline
 90
        2
 70
     0
 43
0.0
 10
14.30675581525733
 20
-22.3946998339957
 10
14.30675581525733
 20
-23.19201866352891
  0
LWPOLYLINE
  5
AE4C1
102
{ACAD_REACTORS
330
AE640
102
}
330
1F
100
AcDbEntity
  8
HI Deatil 2
100
AcDbPolyline
 90
        2
 70
     0
 43
0.0
 10
14.12487676419861
 20
-23.3943013435047
 10
14.22168686358614
 20
-23.47369231814544
  0
LWPOLYLINE
  5
AE4C2
102
{ACAD_REACTORS
330
AE640
102
}
330
1F
100
AcDbEntity
  8
HI Deatil 2
100
AcDbPolyline
 90
        2
 70
     0
 43
0.0
 10
14.4913097396005
 20
-23.3943013435047
 10
14.39205568721378
 20
-23.47437493594779
  0
ARC
  5
AE4C3
102
{ACAD_REACTORS
330
AE640
102
}
330
1F
100
AcDbEntity
  8
HI Deatil 2
100
AcDbCircle
 10
14.30731801277227
 20
-23.36253621175702
 30
0.0
 40
0.1403152653790171
100
AcDbArc
 50
232.3904809119843
 51
307.1503868481141
  0
CIRCLE
  5
AE4C4
102
{ACAD_REACTORS
330
AE640
102
}
330
1F
100
AcDbEntity
  8
HI HATCH FILL
100
AcDbCircle
 10
13.50511895478399
 20
-22.79335924876228
 30
0.0
 40
0.1335487093825943
  0
LINE
  5
AE4C5
102
{ACAD_REACTORS
330
AE640
102
}
330
1F
100
AcDbEntity
  8
HI Detail 3
100
AcDbLine
 10
21.62419893858031
 20
-21.75321454644904
 30
0.0
 11
18.94838012029935
 21
-21.75321454644905
 31
0.0
  0
LWPOLYLINE
  5
AE4D2
102
{ACAD_REACTORS
330
AE640
102
}
330
1F
100
AcDbEntity
  8
HI Deatil 2
100
AcDbPolyline
 90
        9
 70
     0
 43
0.0
 10
10.94230233678334
 20
-23.3943013435047
 42
-0.1101571609056298
 10
10.85762918134714
 20
-23.37158705503731
 42
-0.1057590127341276
 10
10.77967822243583
 20
-23.30502339008423
 42
-0.0867856854738797
 10
10.73061519489169
 20
-23.21081898627028
 42
-0.0769067693278619
 10
10.71231710870411
 20
-23.09255982943946
 42
-0.0769067693278682
 10
10.73061519489169
 20
-22.97430067260868
 42
-0.0867856854738818
 10
10.77967822243583
 20
-22.88009626879474
 42
-0.1057590127341198
 10
10.85762918134714
 20
-22.81353260384168
 42
-0.1246468737829422
 10
10.94230233678334
 20
-22.7920909804656
 42
-0.1246468737829503
  0
LWPOLYLINE
  5
AE4D3
102
{ACAD_REACTORS
330
AE640
102
}
330
1F
100
AcDbEntity
  8
HI Deatil 2
100
AcDbPolyline
 90
       16
 70
     1
 43
0.0
 10
10.94230233678334
 20
-22.19115328251786
 42
0.124646873782944
 10
10.85762918134714
 20
-22.21259490589395
 42
0.1057590127341276
 10
10.77967822243583
 20
-22.27915857084701
 42
0.0867856854738797
 10
10.73061519489169
 20
-22.37336297466095
 42
0.0769067693278619
 10
10.71231710870411
 20
-22.49162213149172
 42
0.0769067693278682
 10
10.73061519489169
 20
-22.60988128832254
 42
0.0867856854738818
 10
10.77967822243583
 20
-22.70408569213649
 42
0.1057590127341198
 10
10.85762918134714
 20
-22.77064935708954
 42
0.1246468737829424
 10
10.94230233678334
 20
-22.7920909804656
 42
0.1246468737829503
 10
11.02697549221945
 20
-22.77064935708954
 42
0.1057590127341277
 10
11.10492645113095
 20
-22.70408569213649
 42
0.0867856854738795
 10
11.15398947867499
 20
-22.60988128832254
 42
0.0769067693278642
 10
11.17228756486248
 20
-22.49162213149172
 42
0.0769067693278658
 10
11.15398947867499
 20
-22.37336297466095
 42
0.086785685473882
 10
11.10492645113095
 20
-22.27915857084701
 42
0.105759012734127
 10
11.02697549221945
 20
-22.21259490589395
 42
0.1246468737829392
  0
LINE
  5
AE4D4
102
{ACAD_REACTORS
330
AE640
102
}
330
1F
100
AcDbEntity
  8
HI Detail 3
100
AcDbLine
 10
21.62419893858031
 20
-21.75321454644905
 30
0.0
 11
21.62419893858031
 21
-23.88489626687943
 31
0.0
  0
LINE
  5
AE4D5
102
{ACAD_REACTORS
330
AE641
102
}
330
1F
100
AcDbEntity
  8
HI Detail 3
100
AcDbLine
 10
18.98371668341783
 20
-28.18072130252842
 30
0.0
 11
18.98371668341782
 21
-29.94301323458072
 31
0.0
  0
LINE
  5
AE4D7
102
{ACAD_REACTORS
330
AE641
102
}
330
1F
100
AcDbEntity
  8
HI Deatil 1
100
AcDbLine
 10
18.50651246052736
 20
-30.06575379761967
 30
0.0
 11
18.50651246052736
 21
-28.11038973716894
 31
0.0
  0
LINE
  5
AE4D8
102
{ACAD_REACTORS
330
AE641
102
}
330
1F
100
AcDbEntity
  8
HI Deatil 1
100
AcDbLine
 10
18.70000621705778
 20
-28.11038973716894
 30
0.0
 11
18.50651246052736
 21
-28.11038973716894
 31
0.0
  0
LINE
  5
AE4D9
102
{ACAD_REACTORS
330
AE641
102
}
330
1F
100
AcDbEntity
  8
HI Deatil 1
100
AcDbLine
 10
18.70000621705778
 20
-30.06575379761967
 30
0.0
 11
18.70000621705778
 21
-28.11038973716894
 31
0.0
  0
LINE
  5
AE4DB
102
{ACAD_REACTORS
330
AE641
102
}
330
1F
100
AcDbEntity
  8
HI Deatil 2
100
AcDbLine
 10
18.9006085476366
 20
-28.41625401822691
 30
0.0
 11
18.9006085476366
 21
-29.70748051888223
 31
0.0
  0
LINE
  5
AE4DC
102
{ACAD_REACTORS
330
AE641
102
}
330
1F
100
AcDbEntity
  8
HI Deatil 2
100
AcDbLine
 10
18.79290552206345
 20
-28.41625401822691
 30
0.0
 11
18.79290552206701
 21
-29.70748051888223
 31
0.0
  0
LINE
  5
AE4DD
102
{ACAD_REACTORS
330
AE641
102
}
330
1F
100
AcDbEntity
  8
HI Deatil 1
100
AcDbLine
 10
18.70000621705778
 20
-30.06575379761967
 30
0.0
 11
18.50651246052736
 21
-30.06575379761967
 31
0.0
  0
LINE
  5
AE4DE
102
{ACAD_REACTORS
330
AE641
102
}
330
1F
100
AcDbEntity
  8
HI Deatil 1
100
AcDbLine
 10
18.20858741909949
 20
-30.06575379761967
 30
0.0
 11
18.20858741909949
 21
-29.93731765040093
 31
0.0
  0
LINE
  5
AE4DF
102
{ACAD_REACTORS
330
AE641
102
}
330
1F
100
AcDbEntity
  8
HI Deatil 1
100
AcDbLine
 10
18.20860936416483
 20
-29.93731765040093
 30
0.0
 11
18.20858741909946
 21
-29.58061916754763
 31
0.0
  0
LINE
  5
AE4E0
102
{ACAD_REACTORS
330
AE641
102
}
330
1F
100
AcDbEntity
  8
HI Deatil 1
100
AcDbLine
 10
18.20860507950124
 20
-29.5806191673355
 30
0.0
 11
18.20859261700134
 21
-28.54311535582207
 31
0.0
  0
LINE
  5
AE4E1
102
{ACAD_REACTORS
330
AE641
102
}
330
1F
100
AcDbEntity
  8
HI Deatil 1
100
AcDbLine
 10
18.20858741909949
 20
-28.54311536956151
 30
0.0
 11
18.20858741909949
 21
-28.29832793964689
 31
0.0
  0
LINE
  5
AE4E2
102
{ACAD_REACTORS
330
AE641
102
}
330
1F
100
AcDbEntity
  8
HI Deatil 1
100
AcDbLine
 10
18.20858741909949
 20
-28.29832793964689
 30
0.0
 11
18.20858741909949
 21
-28.11038973716894
 31
0.0
  0
LINE
  5
AE4E3
102
{ACAD_REACTORS
330
AE641
102
}
330
1F
100
AcDbEntity
  8
HI Deatil 1
100
AcDbLine
 10
18.4020811756299
 20
-28.11038973716894
 30
0.0
 11
18.20858741909949
 21
-28.11038973716894
 31
0.0
  0
LINE
  5
AE4E4
102
{ACAD_REACTORS
330
AE641
102
}
330
1F
100
AcDbEntity
  8
HI Deatil 1
100
AcDbLine
 10
18.4020811756299
 20
-30.06575379761967
 30
0.0
 11
18.4020811756299
 21
-28.11038973716894
 31
0.0
  0
LINE
  5
AE4E5
102
{ACAD_REACTORS
330
AE641
102
}
330
1F
100
AcDbEntity
  8
HI Deatil 1
100
AcDbLine
 10
18.4020811756299
 20
-30.06575379761967
 30
0.0
 11
18.20858741909949
 21
-30.06575379761967
 31
0.0
  0
LINE
  5
AE4E6
102
{ACAD_REACTORS
330
AE641
102
}
330
1F
100
AcDbEntity
  8
HI Deatil 2
100
AcDbLine
 10
18.4020811756299
 20
-29.0114006734444
 30
0.0
 11
18.50651246052736
 21
-29.0114006734444
 31
0.0
  0
LINE
  5
AE4E7
102
{ACAD_REACTORS
330
AE641
102
}
330
1F
100
AcDbEntity
  8
HI Deatil 2
100
AcDbLine
 10
18.4020811756299
 20
-29.1647428613442
 30
0.0
 11
18.50651246052736
 21
-29.1647428613442
 31
0.0
  0
LINE
  5
AE4E8
102
{ACAD_REACTORS
330
AE641
102
}
330
1F
100
AcDbEntity
  8
HI Deatil 1
100
AcDbLine
 10
18.4020811756299
 20
-28.18985821999385
 30
0.0
 11
18.50651246052736
 21
-28.18985821999385
 31
0.0
  0
LINE
  5
AE4E9
102
{ACAD_REACTORS
330
AE641
102
}
330
1F
100
AcDbEntity
  8
HI Deatil 1
100
AcDbLine
 10
18.4020811756299
 20
-29.98628531479475
 30
0.0
 11
18.50651246052736
 21
-29.98628531479475
 31
0.0
  0
LINE
  5
AE4EA
102
{ACAD_REACTORS
330
AE641
102
}
330
1F
100
AcDbEntity
  8
HI Deatil 1
100
AcDbLine
 10
18.70000621705778
 20
-28.41625401822691
 30
0.0
 11
18.98371668341783
 21
-28.41625401822691
 31
0.0
  0
LINE
  5
AE4EB
102
{ACAD_REACTORS
330
AE641
102
}
330
1F
100
AcDbEntity
  8
HI Deatil 1
100
AcDbLine
 10
17.43467471367639
 20
-29.6778442126046
 30
0.0
 11
17.54591553783554
 21
-29.6778442126046
 31
0.0
  0
LINE
  5
AE4EC
102
{ACAD_REACTORS
330
AE641
102
}
330
1F
100
AcDbEntity
  8
HI Deatil 1
100
AcDbLine
 10
17.43467471367639
 20
-29.6778442126046
 30
0.0
 11
17.43467471367639
 21
-29.66331770423477
 31
0.0
  0
LINE
  5
AE4ED
102
{ACAD_REACTORS
330
AE641
102
}
330
1F
100
AcDbEntity
  8
HI Deatil 1
100
AcDbLine
 10
17.43467471367639
 20
-29.66331770423477
 30
0.0
 11
17.43467471367639
 21
-28.46016964324792
 31
0.0
  0
LINE
  5
AE4EE
102
{ACAD_REACTORS
330
AE641
102
}
330
1F
100
AcDbEntity
  8
HI Deatil 1
100
AcDbLine
 10
17.43467471367639
 20
-28.46016964324792
 30
0.0
 11
17.43467471367639
 21
-28.44589032450475
 31
0.0
  0
LINE
  5
AE4EF
102
{ACAD_REACTORS
330
AE641
102
}
330
1F
100
AcDbEntity
  8
HI Deatil 1
100
AcDbLine
 10
17.54591553783554
 20
-29.6778442126046
 30
0.0
 11
17.54591553783554
 21
-29.58061916754763
 31
0.0
  0
LINE
  5
AE4F0
102
{ACAD_REACTORS
330
AE641
102
}
330
1F
100
AcDbEntity
  8
HI Deatil 1
100
AcDbLine
 10
17.54591553783554
 20
-29.58061916754763
 30
0.0
 11
17.54591553783554
 21
-28.54311536956151
 31
0.0
  0
LINE
  5
AE4F1
102
{ACAD_REACTORS
330
AE641
102
}
330
1F
100
AcDbEntity
  8
HI Deatil 1
100
AcDbLine
 10
17.54591553783554
 20
-28.54311536956151
 30
0.0
 11
17.54591553783554
 21
-28.44589032450475
 31
0.0
  0
LINE
  5
AE4F2
102
{ACAD_REACTORS
330
AE641
102
}
330
1F
100
AcDbEntity
  8
HI Deatil 1
100
AcDbLine
 10
17.43467471367639
 20
-28.44589032450475
 30
0.0
 11
17.54591553783554
 21
-28.44589032450475
 31
0.0
  0
LINE
  5
AE4F3
102
{ACAD_REACTORS
330
AE641
102
}
330
1F
100
AcDbEntity
  8
HI Deatil 1
100
AcDbLine
 10
18.20858741909946
 20
-29.58061916754763
 30
0.0
 11
17.54591553783554
 21
-29.58061916754763
 31
0.0
  0
LINE
  5
AE4F4
102
{ACAD_REACTORS
330
AE641
102
}
330
1F
100
AcDbEntity
  8
HI Deatil 1
100
AcDbLine
 10
18.20858741909949
 20
-28.54311536956151
 30
0.0
 11
17.54591553783554
 21
-28.54311536956151
 31
0.0
  0
LINE
  5
AE4F5
102
{ACAD_REACTORS
330
AE641
102
}
330
1F
100
AcDbEntity
  8
HI Deatil 2
100
AcDbLine
 10
17.43467471367639
 20
-28.46016964324792
 30
0.0
 11
17.01038414671298
 21
-28.46016964324792
 31
0.0
  0
LINE
  5
AE4F6
102
{ACAD_REACTORS
330
AE641
102
}
330
1F
100
AcDbEntity
  8
HI Deatil 2
100
AcDbLine
 10
17.01038414671298
 20
-28.46016964324792
 30
0.0
 11
17.01038414671298
 21
-28.29832793964689
 31
0.0
  0
LINE
  5
AE4F7
102
{ACAD_REACTORS
330
AE641
102
}
330
1F
100
AcDbEntity
  8
HI Deatil 2
100
AcDbLine
 10
17.01038414671298
 20
-28.29832793964689
 30
0.0
 11
17.01038414671298
 21
-28.29501130110804
 31
0.0
  0
ARC
  5
AE4F8
102
{ACAD_REACTORS
330
AE641
102
}
330
1F
100
AcDbEntity
  8
HI Deatil 2
100
AcDbCircle
 10
17.00038414671298
 20
-28.29501130110804
 30
0.0
 40
0.0100000000000051
100
AcDbArc
 50
0.0
 51
126.5327755904136
  0
LINE
  5
AE4F9
102
{ACAD_REACTORS
330
AE641
102
}
330
1F
100
AcDbEntity
  8
HI Deatil 2
100
AcDbLine
 10
16.99443132142034
 20
-28.28697613645289
 30
0.0
 11
16.97910857914038
 21
-28.29832793964689
 31
0.0
  0
LINE
  5
AE4FA
102
{ACAD_REACTORS
330
AE641
102
}
330
1F
100
AcDbEntity
  8
HI Deatil 2
100
AcDbLine
 10
16.97910857914037
 20
-28.29832793964689
 30
0.0
 11
16.76065353089396
 21
-28.46016964324792
 31
0.0
  0
LINE
  5
AE4FB
102
{ACAD_REACTORS
330
AE641
102
}
330
1F
100
AcDbEntity
  8
HI Deatil 2
100
AcDbLine
 10
16.76065353089396
 20
-28.46016964324792
 30
0.0
 11
14.52664630271894
 21
-28.46016964324792
 31
0.0
  0
LINE
  5
AE4FC
102
{ACAD_REACTORS
330
AE641
102
}
330
1F
100
AcDbEntity
  8
HI Deatil 2
100
AcDbLine
 10
12.55693960637048
 20
-28.46016964324792
 30
0.0
 11
10.97763889990188
 21
-28.46016964324792
 31
0.0
  0
LINE
  5
AE4FD
102
{ACAD_REACTORS
330
AE641
102
}
330
1F
100
AcDbEntity
  8
HI Deatil 2
100
AcDbLine
 10
17.43467471367639
 20
-29.66331770423477
 30
0.0
 11
17.01038414671298
 21
-29.66331770423477
 31
0.0
  0
LINE
  5
AE4FE
102
{ACAD_REACTORS
330
AE641
102
}
330
1F
100
AcDbEntity
  8
HI Deatil 2
100
AcDbLine
 10
17.01038414671298
 20
-29.66331770423477
 30
0.0
 11
17.01038414671298
 21
-29.82847604637465
 31
0.0
  0
ARC
  5
AE4FF
102
{ACAD_REACTORS
330
AE641
102
}
330
1F
100
AcDbEntity
  8
HI Deatil 2
100
AcDbCircle
 10
17.00038414671298
 20
-29.82847604637465
 30
0.0
 40
0.0100000000000051
100
AcDbArc
 50
233.4672244095863
 51
0.0
  0
LINE
  5
AE500
102
{ACAD_REACTORS
330
AE641
102
}
330
1F
100
AcDbEntity
  8
HI Deatil 2
100
AcDbLine
 10
16.99443132142034
 20
-29.8365112110298
 30
0.0
 11
16.76065353089396
 21
-29.66331770423477
 31
0.0
  0
LINE
  5
AE501
102
{ACAD_REACTORS
330
AE641
102
}
330
1F
100
AcDbEntity
  8
HI Deatil 2
100
AcDbLine
 10
16.76065353089396
 20
-29.66331770423477
 30
0.0
 11
14.52664630271899
 21
-29.66331770423477
 31
0.0
  0
LINE
  5
AE502
102
{ACAD_REACTORS
330
AE641
102
}
330
1F
100
AcDbEntity
  8
HI Deatil 2
100
AcDbLine
 10
12.55693960637052
 20
-29.66331770423477
 30
0.0
 11
10.97763889990182
 21
-29.66331770423477
 31
0.0
  0
LINE
  5
AE503
102
{ACAD_REACTORS
330
AE641
102
}
330
1F
100
AcDbEntity
  8
HI Deatil 1
100
AcDbLine
 10
16.38659417654453
 20
-28.5431153695615
 30
0.0
 11
16.38659417654456
 21
-29.58061916754763
 31
0.0
  0
LINE
  5
AE504
102
{ACAD_REACTORS
330
AE641
102
}
330
1F
100
AcDbEntity
  8
HI Deatil 1
100
AcDbLine
 10
16.95684286143212
 20
-28.40673865562304
 30
0.0
 11
16.95684286143212
 21
-29.71699588148631
 31
0.0
  0
LINE
  5
AE505
102
{ACAD_REACTORS
330
AE641
102
}
330
1F
100
AcDbEntity
  8
HI Deatil 1
100
AcDbLine
 10
16.95684286143212
 20
-29.71699588148631
 30
0.0
 11
16.77276063194349
 21
-29.58061916754762
 31
0.0
  0
LINE
  5
AE506
102
{ACAD_REACTORS
330
AE641
102
}
330
1F
100
AcDbEntity
  8
HI Deatil 1
100
AcDbLine
 10
16.77276063194349
 20
-29.58061916754762
 30
0.0
 11
16.77276063194349
 21
-28.5431153695615
 31
0.0
  0
LINE
  5
AE507
102
{ACAD_REACTORS
330
AE641
102
}
330
1F
100
AcDbEntity
  8
HI Deatil 1
100
AcDbLine
 10
16.95684286143212
 20
-28.40673865562303
 30
0.0
 11
16.77276063194349
 21
-28.5431153695615
 31
0.0
  0
LINE
  5
AE508
102
{ACAD_REACTORS
330
AE641
102
}
330
1F
100
AcDbEntity
  8
HI Deatil 1
100
AcDbLine
 10
16.77276063194349
 20
-29.58061916754762
 30
0.0
 11
16.38659417654453
 21
-29.58061916754763
 31
0.0
  0
LINE
  5
AE509
102
{ACAD_REACTORS
330
AE641
102
}
330
1F
100
AcDbEntity
  8
HI Deatil 1
100
AcDbLine
 10
16.77276063194349
 20
-28.5431153695615
 30
0.0
 11
16.38659417654453
 21
-28.5431153695615
 31
0.0
  0
LINE
  5
AE50A
102
{ACAD_REACTORS
330
AE641
102
}
330
1F
100
AcDbEntity
  8
HI Deatil 1
100
AcDbLine
 10
17.43467471367639
 20
-29.58061916754762
 30
0.0
 11
16.95684286143212
 21
-29.58061916754763
 31
0.0
  0
LINE
  5
AE50B
102
{ACAD_REACTORS
330
AE641
102
}
330
1F
100
AcDbEntity
  8
HI Deatil 1
100
AcDbLine
 10
17.43467471367639
 20
-28.5431153695615
 30
0.0
 11
16.95684286143212
 21
-28.5431153695615
 31
0.0
  0
LINE
  5
AE50C
102
{ACAD_REACTORS
330
AE641
102
}
330
1F
100
AcDbEntity
  8
HI Deatil 2
100
AcDbLine
 10
12.92337258177234
 20
-28.46016964324792
 30
0.0
 11
14.16021332731705
 21
-28.46016964324792
 31
0.0
  0
LWPOLYLINE
  5
AE50D
102
{ACAD_REACTORS
330
AE641
102
}
330
1F
100
AcDbEntity
  8
HI Deatil 2
100
AcDbPolyline
 90
        2
 70
     0
 43
0.0
 10
12.92337258177234
 20
-28.46016964324792
 10
14.16021332731705
 20
-28.46016964324792
  0
LWPOLYLINE
  5
AE50E
102
{ACAD_REACTORS
330
AE641
102
}
330
1F
100
AcDbEntity
  8
HI Deatil 2
100
AcDbPolyline
 90
        2
 70
     0
 43
0.0
 10
12.92337258177237
 20
-29.66331770423477
 10
14.16021332731709
 20
-29.66331770423477
  0
LWPOLYLINE
  5
AE50F
102
{ACAD_REACTORS
330
AE641
102
}
330
1F
100
AcDbEntity
  8
HI Deatil 2
100
AcDbPolyline
 90
        2
 70
     0
 43
0.0
 10
12.55693960637048
 20
-28.46016964324792
 10
12.65374970575793
 20
-28.38077866860718
  0
LWPOLYLINE
  5
AE510
102
{ACAD_REACTORS
330
AE641
102
}
330
1F
100
AcDbEntity
  8
HI Deatil 2
100
AcDbPolyline
 90
        2
 70
     0
 43
0.0
 10
12.92337258177234
 20
-28.46016964324792
 10
12.82411852938561
 20
-28.38009605080485
  0
ARC
  5
AE511
102
{ACAD_REACTORS
330
AE641
102
}
330
1F
100
AcDbEntity
  8
HI Deatil 2
100
AcDbCircle
 10
12.73938085494411
 20
-28.49193477499561
 30
0.0
 40
0.1403152653790171
100
AcDbArc
 50
52.84961315188585
 51
127.6095190880154
  0
LWPOLYLINE
  5
AE512
102
{ACAD_REACTORS
330
AE641
102
}
330
1F
100
AcDbEntity
  8
HI HATCH FILL
100
AcDbPolyline
 90
        2
 70
     0
 43
0.0
 10
12.73881865742921
 20
-28.66371619472576
 10
12.73881865742921
 20
-29.46103502425897
  0
LWPOLYLINE
  5
AE513
102
{ACAD_REACTORS
330
AE641
102
}
330
1F
100
AcDbEntity
  8
HI Deatil 2
100
AcDbPolyline
 90
        2
 70
     0
 43
0.0
 10
12.55693960637052
 20
-29.66331770423477
 10
12.65374970575797
 20
-29.7427086788755
  0
LWPOLYLINE
  5
AE514
102
{ACAD_REACTORS
330
AE641
102
}
330
1F
100
AcDbEntity
  8
HI Deatil 2
100
AcDbPolyline
 90
        2
 70
     0
 43
0.0
 10
12.92337258177237
 20
-29.66331770423477
 10
12.82411852938565
 20
-29.74339129667785
  0
ARC
  5
AE515
102
{ACAD_REACTORS
330
AE641
102
}
330
1F
100
AcDbEntity
  8
HI Deatil 2
100
AcDbCircle
 10
12.73938085494415
 20
-29.63155257248708
 30
0.0
 40
0.1403152653790171
100
AcDbArc
 50
232.3904809119843
 51
307.1503868481141
  0
LWPOLYLINE
  5
AE516
102
{ACAD_REACTORS
330
AE641
102
}
330
1F
100
AcDbEntity
  8
HI Deatil 2
100
AcDbPolyline
 90
        2
 70
     0
 43
0.0
 10
14.16021332731705
 20
-28.46016964324792
 10
14.25702342670458
 20
-28.38077866860718
  0
LWPOLYLINE
  5
AE517
102
{ACAD_REACTORS
330
AE641
102
}
330
1F
100
AcDbEntity
  8
HI Deatil 2
100
AcDbPolyline
 90
        2
 70
     0
 43
0.0
 10
14.52664630271894
 20
-28.46016964324792
 10
14.42739225033222
 20
-28.38009605080485
  0
ARC
  5
AE518
102
{ACAD_REACTORS
330
AE641
102
}
330
1F
100
AcDbEntity
  8
HI Deatil 2
100
AcDbCircle
 10
14.34265457589072
 20
-28.49193477499561
 30
0.0
 40
0.1403152653790171
100
AcDbArc
 50
52.84961315188585
 51
127.6095190880154
  0
LWPOLYLINE
  5
AE519
102
{ACAD_REACTORS
330
AE641
102
}
330
1F
100
AcDbEntity
  8
HI HATCH FILL
100
AcDbPolyline
 90
        2
 70
     0
 43
0.0
 10
14.34209237837581
 20
-28.66371619472576
 10
14.34209237837581
 20
-29.46103502425897
  0
LWPOLYLINE
  5
AE51A
102
{ACAD_REACTORS
330
AE641
102
}
330
1F
100
AcDbEntity
  8
HI Deatil 2
100
AcDbPolyline
 90
        2
 70
     0
 43
0.0
 10
14.16021332731709
 20
-29.66331770423477
 10
14.25702342670462
 20
-29.7427086788755
  0
LWPOLYLINE
  5
AE51B
102
{ACAD_REACTORS
330
AE641
102
}
330
1F
100
AcDbEntity
  8
HI Deatil 2
100
AcDbPolyline
 90
        2
 70
     0
 43
0.0
 10
14.52664630271899
 20
-29.66331770423477
 10
14.42739225033226
 20
-29.74339129667785
  0
ARC
  5
AE51C
102
{ACAD_REACTORS
330
AE641
102
}
330
1F
100
AcDbEntity
  8
HI Deatil 2
100
AcDbCircle
 10
14.34265457589075
 20
-29.63155257248708
 30
0.0
 40
0.1403152653790171
100
AcDbArc
 50
232.3904809119843
 51
307.1503868481141
  0
CIRCLE
  5
AE51D
102
{ACAD_REACTORS
330
AE641
102
}
330
1F
100
AcDbEntity
  8
HI HATCH FILL
100
AcDbCircle
 10
13.54045551790247
 20
-29.06237560949234
 30
0.0
 40
0.1335487093825943
  0
LINE
  5
AE51E
102
{ACAD_REACTORS
330
AE641
102
}
330
1F
100
AcDbEntity
  8
HI Detail 3
100
AcDbLine
 10
21.65953550169879
 20
-28.18072130252841
 30
0.0
 11
18.98371668341783
 21
-28.18072130252842
 31
0.0
  0
LWPOLYLINE
  5
AE51F
102
{ACAD_REACTORS
330
AE641
102
}
330
1F
100
AcDbEntity
  8
HI Deatil 2
100
AcDbPolyline
 90
        9
 70
     0
 43
0.0
 10
10.97763889990182
 20
-29.66331770423477
 42
-0.1101571609056298
 10
10.89296574446562
 20
-29.64060341576737
 42
-0.1057590127341276
 10
10.81501478555431
 20
-29.57403975081429
 42
-0.0867856854738797
 10
10.76595175801018
 20
-29.47983534700034
 42
-0.0769067693278619
 10
10.74765367182259
 20
-29.36157619016952
 42
-0.0769067693278682
 10
10.76595175801018
 20
-29.24331703333875
 42
-0.0867856854738818
 10
10.81501478555431
 20
-29.14911262952481
 42
-0.1057590127341198
 10
10.89296574446562
 20
-29.08254896457174
 42
-0.1246468737829422
 10
10.97763889990182
 20
-29.06110734119566
 42
-0.1246468737829503
  0
LWPOLYLINE
  5
AE520
102
{ACAD_REACTORS
330
AE641
102
}
330
1F
100
AcDbEntity
  8
HI Deatil 2
100
AcDbPolyline
 90
       16
 70
     1
 43
0.0
 10
10.97763889990182
 20
-28.46016964324792
 42
0.124646873782944
 10
10.89296574446562
 20
-28.48161126662401
 42
0.1057590127341276
 10
10.81501478555431
 20
-28.54817493157707
 42
0.0867856854738797
 10
10.76595175801018
 20
-28.64237933539101
 42
0.0769067693278619
 10
10.74765367182259
 20
-28.76063849222179
 42
0.0769067693278682
 10
10.76595175801018
 20
-28.87889764905261
 42
0.0867856854738818
 10
10.81501478555431
 20
-28.97310205286656
 42
0.1057590127341198
 10
10.89296574446562
 20
-29.0396657178196
 42
0.1246468737829424
 10
10.97763889990182
 20
-29.06110734119566
 42
0.1246468737829503
 10
11.06231205533793
 20
-29.0396657178196
 42
0.1057590127341277
 10
11.14026301424943
 20
-28.97310205286656
 42
0.0867856854738795
 10
11.18932604179347
 20
-28.87889764905261
 42
0.0769067693278642
 10
11.20762412798096
 20
-28.76063849222179
 42
0.0769067693278658
 10
11.18932604179347
 20
-28.64237933539101
 42
0.086785685473882
 10
11.14026301424943
 20
-28.54817493157707
 42
0.105759012734127
 10
11.06231205533793
 20
-28.48161126662401
 42
0.1246468737829392
  0
LINE
  5
AE521
102
{ACAD_REACTORS
330
AE641
102
}
330
1F
100
AcDbEntity
  8
HI Detail 3
100
AcDbLine
 10
21.65953550169879
 20
-28.18072130252841
 30
0.0
 11
21.65953550169879
 21
-29.94301323458073
 31
0.0
  0
LINE
  5
AE522
102
{ACAD_REACTORS
330
AE641
102
}
330
1F
100
AcDbEntity
  8
HI Deatil 1
100
AcDbLine
 10
18.70000621705778
 20
-29.70748051888222
 30
0.0
 11
18.98371668341783
 21
-29.70748051888222
 31
0.0
  0
LINE
  5
AE523
102
{ACAD_REACTORS
330
AE641
102
}
330
1F
100
AcDbEntity
  8
HI Detail 3
100
AcDbLine
 10
21.65953550169879
 20
-29.94301323458073
 30
0.0
 11
18.98371668341783
 21
-29.94301323458072
 31
0.0
  0
LINE
  5
AE556
102
{ACAD_REACTORS
330
AE642
102
}
330
1F
100
AcDbEntity
  8
HI Deatil 1
100
AcDbLine
 10
16.57198891283166
 20
-36.81153716845653
 30
0.0
 11
18.70367063326204
 21
-36.81153716845654
 31
0.0
  0
LINE
  5
AE557
102
{ACAD_REACTORS
330
AE642
102
}
330
1F
100
AcDbEntity
  8
HI Deatil 1
100
AcDbLine
 10
18.70367063326204
 20
-34.81009775391968
 30
0.0
 11
18.70367063326204
 21
-36.81153716845654
 31
0.0
  0
LINE
  5
AE55B
102
{ACAD_REACTORS
330
AE642
102
}
330
1F
100
AcDbEntity
  8
HI Detail 3
100
AcDbLine
 10
18.46813791756355
 20
-37.09524763481659
 30
0.0
 11
18.46813791756355
 21
-36.81153716845654
 31
0.0
  0
LINE
  5
AE55C
102
{ACAD_REACTORS
330
AE642
102
}
330
1F
100
AcDbEntity
  8
HI Detail 3
100
AcDbLine
 10
16.80752162853016
 20
-36.89464530423776
 30
0.0
 11
18.46813791756355
 21
-36.89464530423777
 31
0.0
  0
LINE
  5
AE55D
102
{ACAD_REACTORS
330
AE642
102
}
330
1F
100
AcDbEntity
  8
HI Detail 3
100
AcDbLine
 10
16.80752162853017
 20
-37.00234832981135
 30
0.0
 11
18.46813791756355
 21
-37.00234832980678
 31
0.0
  0
LINE
  5
AE56B
102
{ACAD_REACTORS
330
AE642
102
}
330
1F
100
AcDbEntity
  8
HI Detail 3
100
AcDbLine
 10
16.80752162853016
 20
-37.09524763481658
 30
0.0
 11
16.80752162853016
 21
-36.81153716845653
 31
0.0
  0
LINE
  5
AE59F
102
{ACAD_REACTORS
330
AE642
102
}
330
1F
100
AcDbEntity
  8
HI Deatil 1
100
AcDbLine
 10
16.57198891283166
 20
-34.81009775391971
 30
0.0
 11
16.57198891283166
 21
-36.81153716845653
 31
0.0
  0
LINE
  5
AE5A2
102
{ACAD_REACTORS
330
AE642
102
}
330
1F
100
AcDbEntity
  8
HI Deatil 1
100
AcDbLine
 10
16.79788380419152
 20
-34.13571835017557
 30
0.0
 11
18.47777574190219
 21
-34.13571835017558
 31
0.0
  0
LWPOLYLINE
  5
AE5A3
102
{ACAD_REACTORS
330
AE642
102
}
330
1F
100
AcDbEntity
  8
HI Deatil 1
100
AcDbPolyline
 90
        2
 70
     0
 43
0.0
 10
16.57198891283166
 20
-34.81009775391971
 10
16.79788380419152
 20
-34.13571835017557
  0
LWPOLYLINE
  5
AE5A4
102
{ACAD_REACTORS
330
AE642
102
}
330
1F
100
AcDbEntity
  8
HI Deatil 1
100
AcDbPolyline
 90
        2
 70
     0
 43
0.0
 10
18.70367063326205
 20
-34.81009775391971
 10
18.47777574190219
 20
-34.13571835017558
  0
LWPOLYLINE
  5
AE5A5
102
{ACAD_REACTORS
330
AE642
102
}
330
1F
100
AcDbEntity
  8
HI Deatil 1
100
AcDbPolyline
 90
        2
 70
     0
 43
0.0
 10
18.70367063326205
 20
-34.81009775391971
 10
16.57198891283166
 20
-34.81009775391971
  0
LINE
  5
AE5B6
102
{ACAD_REACTORS
330
AE642
102
}
330
1F
100
AcDbEntity
  8
HI Deatil 1
100
AcDbLine
 10
15.79807620740859
 20
-35.6154111649706
 30
0.0
 11
15.90931703156774
 21
-35.6154111649706
 31
0.0
  0
LINE
  5
AE5B7
102
{ACAD_REACTORS
330
AE642
102
}
330
1F
100
AcDbEntity
  8
HI Deatil 1
100
AcDbLine
 10
15.79807620740859
 20
-35.6154111649706
 30
0.0
 11
15.79807620740859
 21
-35.60088465660076
 31
0.0
  0
LINE
  5
AE5B8
102
{ACAD_REACTORS
330
AE642
102
}
330
1F
100
AcDbEntity
  8
HI Deatil 1
100
AcDbLine
 10
15.79807620740859
 20
-35.60088465660076
 30
0.0
 11
15.7980762074086
 21
-34.39773659561391
 31
0.0
  0
LINE
  5
AE5B9
102
{ACAD_REACTORS
330
AE642
102
}
330
1F
100
AcDbEntity
  8
HI Deatil 1
100
AcDbLine
 10
15.7980762074086
 20
-34.39773659561391
 30
0.0
 11
15.7980762074086
 21
-34.38345727687075
 31
0.0
  0
LINE
  5
AE5BA
102
{ACAD_REACTORS
330
AE642
102
}
330
1F
100
AcDbEntity
  8
HI Deatil 1
100
AcDbLine
 10
15.90931703156774
 20
-35.6154111649706
 30
0.0
 11
15.90931703156774
 21
-35.51818611991362
 31
0.0
  0
LINE
  5
AE5BB
102
{ACAD_REACTORS
330
AE642
102
}
330
1F
100
AcDbEntity
  8
HI Deatil 1
100
AcDbLine
 10
15.90931703156774
 20
-35.51818611991362
 30
0.0
 11
15.90931703156775
 21
-34.4806823219275
 31
0.0
  0
LINE
  5
AE5BC
102
{ACAD_REACTORS
330
AE642
102
}
330
1F
100
AcDbEntity
  8
HI Deatil 1
100
AcDbLine
 10
15.90931703156775
 20
-34.4806823219275
 30
0.0
 11
15.90931703156775
 21
-34.38345727687075
 31
0.0
  0
LINE
  5
AE5BD
102
{ACAD_REACTORS
330
AE642
102
}
330
1F
100
AcDbEntity
  8
HI Deatil 1
100
AcDbLine
 10
15.7980762074086
 20
-34.38345727687075
 30
0.0
 11
15.90931703156775
 21
-34.38345727687075
 31
0.0
  0
LINE
  5
AE5BE
102
{ACAD_REACTORS
330
AE642
102
}
330
1F
100
AcDbEntity
  8
HI Deatil 1
100
AcDbLine
 10
16.57198891283166
 20
-35.51818611991362
 30
0.0
 11
15.90931703156774
 21
-35.51818611991362
 31
0.0
  0
LINE
  5
AE5BF
102
{ACAD_REACTORS
330
AE642
102
}
330
1F
100
AcDbEntity
  8
HI Deatil 1
100
AcDbLine
 10
16.68233223412677
 20
-34.4806823219275
 30
0.0
 11
15.90931703156775
 21
-34.4806823219275
 31
0.0
  0
LINE
  5
AE5CA
102
{ACAD_REACTORS
330
AE642
102
}
330
1F
100
AcDbEntity
  8
HI Deatil 1
100
AcDbLine
 10
14.74999567027674
 20
-34.4806823219275
 30
0.0
 11
14.74999567027676
 21
-35.51818611991363
 31
0.0
  0
LINE
  5
AE5CB
102
{ACAD_REACTORS
330
AE642
102
}
330
1F
100
AcDbEntity
  8
HI Deatil 1
100
AcDbLine
 10
15.32024435516433
 20
-34.34430560798904
 30
0.0
 11
15.32024435516432
 21
-35.65456283385231
 31
0.0
  0
LINE
  5
AE5CC
102
{ACAD_REACTORS
330
AE642
102
}
330
1F
100
AcDbEntity
  8
HI Deatil 1
100
AcDbLine
 10
15.32024435516432
 20
-35.65456283385231
 30
0.0
 11
15.13616212567569
 21
-35.51818611991361
 31
0.0
  0
LINE
  5
AE5CD
102
{ACAD_REACTORS
330
AE642
102
}
330
1F
100
AcDbEntity
  8
HI Deatil 1
100
AcDbLine
 10
15.13616212567569
 20
-35.51818611991361
 30
0.0
 11
15.13616212567569
 21
-34.4806823219275
 31
0.0
  0
LINE
  5
AE5CE
102
{ACAD_REACTORS
330
AE642
102
}
330
1F
100
AcDbEntity
  8
HI Deatil 1
100
AcDbLine
 10
15.32024435516433
 20
-34.34430560798902
 30
0.0
 11
15.13616212567569
 21
-34.4806823219275
 31
0.0
  0
LINE
  5
AE5CF
102
{ACAD_REACTORS
330
AE642
102
}
330
1F
100
AcDbEntity
  8
HI Deatil 1
100
AcDbLine
 10
15.13616212567569
 20
-35.51818611991361
 30
0.0
 11
14.74999567027674
 21
-35.51818611991363
 31
0.0
  0
LINE
  5
AE5D0
102
{ACAD_REACTORS
330
AE642
102
}
330
1F
100
AcDbEntity
  8
HI Deatil 1
100
AcDbLine
 10
15.13616212567569
 20
-34.4806823219275
 30
0.0
 11
14.74999567027674
 21
-34.4806823219275
 31
0.0
  0
LINE
  5
AE5D1
102
{ACAD_REACTORS
330
AE642
102
}
330
1F
100
AcDbEntity
  8
HI Deatil 1
100
AcDbLine
 10
15.79807620740859
 20
-35.51818611991361
 30
0.0
 11
15.32024435516432
 21
-35.51818611991363
 31
0.0
  0
LINE
  5
AE5D2
102
{ACAD_REACTORS
330
AE642
102
}
330
1F
100
AcDbEntity
  8
HI Deatil 1
100
AcDbLine
 10
15.7980762074086
 20
-34.4806823219275
 30
0.0
 11
15.32024435516433
 21
-34.4806823219275
 31
0.0
  0
LINE
  5
AE5D3
102
{ACAD_REACTORS
330
AE642
102
}
330
1F
100
AcDbEntity
  8
HI Deatil 1
100
AcDbLine
 10
19.47758333868513
 20
-35.6154111649706
 30
0.0
 11
19.36634251452597
 21
-35.6154111649706
 31
0.0
  0
LINE
  5
AE5D4
102
{ACAD_REACTORS
330
AE642
102
}
330
1F
100
AcDbEntity
  8
HI Deatil 1
100
AcDbLine
 10
19.47758333868513
 20
-35.6154111649706
 30
0.0
 11
19.47758333868513
 21
-35.60088465660076
 31
0.0
  0
LINE
  5
AE5D5
102
{ACAD_REACTORS
330
AE642
102
}
330
1F
100
AcDbEntity
  8
HI Deatil 1
100
AcDbLine
 10
19.47758333868513
 20
-35.60088465660076
 30
0.0
 11
19.47758333868512
 21
-34.39773659561391
 31
0.0
  0
LINE
  5
AE5D6
102
{ACAD_REACTORS
330
AE642
102
}
330
1F
100
AcDbEntity
  8
HI Deatil 1
100
AcDbLine
 10
19.47758333868512
 20
-34.39773659561391
 30
0.0
 11
19.47758333868512
 21
-34.38345727687075
 31
0.0
  0
LINE
  5
AE5D7
102
{ACAD_REACTORS
330
AE642
102
}
330
1F
100
AcDbEntity
  8
HI Deatil 1
100
AcDbLine
 10
19.36634251452597
 20
-35.6154111649706
 30
0.0
 11
19.36634251452597
 21
-35.51818611991362
 31
0.0
  0
LINE
  5
AE5D8
102
{ACAD_REACTORS
330
AE642
102
}
330
1F
100
AcDbEntity
  8
HI Deatil 1
100
AcDbLine
 10
19.36634251452597
 20
-35.51818611991362
 30
0.0
 11
19.36634251452597
 21
-34.4806823219275
 31
0.0
  0
LINE
  5
AE5D9
102
{ACAD_REACTORS
330
AE642
102
}
330
1F
100
AcDbEntity
  8
HI Deatil 1
100
AcDbLine
 10
19.36634251452597
 20
-34.4806823219275
 30
0.0
 11
19.36634251452597
 21
-34.38345727687075
 31
0.0
  0
LINE
  5
AE5DA
102
{ACAD_REACTORS
330
AE642
102
}
330
1F
100
AcDbEntity
  8
HI Deatil 1
100
AcDbLine
 10
19.47758333868512
 20
-34.38345727687075
 30
0.0
 11
19.36634251452597
 21
-34.38345727687075
 31
0.0
  0
LINE
  5
AE5DB
102
{ACAD_REACTORS
330
AE642
102
}
330
1F
100
AcDbEntity
  8
HI Deatil 1
100
AcDbLine
 10
18.70367063326206
 20
-35.51818611991362
 30
0.0
 11
19.36634251452597
 21
-35.51818611991362
 31
0.0
  0
LINE
  5
AE5DC
102
{ACAD_REACTORS
330
AE642
102
}
330
1F
100
AcDbEntity
  8
HI Deatil 1
100
AcDbLine
 10
18.59332731196695
 20
-34.4806823219275
 30
0.0
 11
19.36634251452597
 21
-34.4806823219275
 31
0.0
  0
LINE
  5
AE5DD
102
{ACAD_REACTORS
330
AE642
102
}
330
1F
100
AcDbEntity
  8
HI Deatil 1
100
AcDbLine
 10
20.52566387581697
 20
-34.4806823219275
 30
0.0
 11
20.52566387581695
 21
-35.51818611991363
 31
0.0
  0
LINE
  5
AE5DE
102
{ACAD_REACTORS
330
AE642
102
}
330
1F
100
AcDbEntity
  8
HI Deatil 1
100
AcDbLine
 10
19.95541519092938
 20
-34.34430560798904
 30
0.0
 11
19.95541519092939
 21
-35.65456283385231
 31
0.0
  0
LINE
  5
AE5DF
102
{ACAD_REACTORS
330
AE642
102
}
330
1F
100
AcDbEntity
  8
HI Deatil 1
100
AcDbLine
 10
19.95541519092939
 20
-35.65456283385231
 30
0.0
 11
20.13949742041803
 21
-35.51818611991361
 31
0.0
  0
LINE
  5
AE5E0
102
{ACAD_REACTORS
330
AE642
102
}
330
1F
100
AcDbEntity
  8
HI Deatil 1
100
AcDbLine
 10
20.13949742041803
 20
-35.51818611991361
 30
0.0
 11
20.13949742041802
 21
-34.4806823219275
 31
0.0
  0
LINE
  5
AE5E1
102
{ACAD_REACTORS
330
AE642
102
}
330
1F
100
AcDbEntity
  8
HI Deatil 1
100
AcDbLine
 10
19.95541519092938
 20
-34.34430560798902
 30
0.0
 11
20.13949742041802
 21
-34.4806823219275
 31
0.0
  0
LINE
  5
AE5E2
102
{ACAD_REACTORS
330
AE642
102
}
330
1F
100
AcDbEntity
  8
HI Deatil 1
100
AcDbLine
 10
20.13949742041803
 20
-35.51818611991361
 30
0.0
 11
20.52566387581698
 21
-35.51818611991363
 31
0.0
  0
LINE
  5
AE5E3
102
{ACAD_REACTORS
330
AE642
102
}
330
1F
100
AcDbEntity
  8
HI Deatil 1
100
AcDbLine
 10
20.13949742041802
 20
-34.4806823219275
 30
0.0
 11
20.52566387581697
 21
-34.4806823219275
 31
0.0
  0
LINE
  5
AE5E4
102
{ACAD_REACTORS
330
AE642
102
}
330
1F
100
AcDbEntity
  8
HI Deatil 1
100
AcDbLine
 10
19.47758333868513
 20
-35.51818611991361
 30
0.0
 11
19.95541519092939
 21
-35.51818611991363
 31
0.0
  0
LINE
  5
AE5E5
102
{ACAD_REACTORS
330
AE642
102
}
330
1F
100
AcDbEntity
  8
HI Deatil 1
100
AcDbLine
 10
19.47758333868512
 20
-34.4806823219275
 30
0.0
 11
19.95541519092938
 21
-34.4806823219275
 31
0.0
  0
LINE
  5
AE5E6
102
{ACAD_REACTORS
330
AE642
102
}
330
1F
100
AcDbEntity
  8
HI Detail 3
100
AcDbLine
 10
18.70367063326204
 20
-37.09524763481659
 30
0.0
 11
16.57198891283166
 21
-37.09524763481659
 31
0.0
  0
LINE
  5
AE5E7
102
{ACAD_REACTORS
330
AE642
102
}
330
1F
100
AcDbEntity
  8
HI Detail 3
100
AcDbLine
 10
16.57198891283167
 20
-39.77106645309755
 30
0.0
 11
16.57198891283166
 21
-37.09524763481659
 31
0.0
  0
LINE
  5
AE5E8
102
{ACAD_REACTORS
330
AE642
102
}
330
1F
100
AcDbEntity
  8
HI Detail 3
100
AcDbLine
 10
18.70367063326205
 20
-39.77106645309755
 30
0.0
 11
18.70367063326204
 21
-37.09524763481659
 31
0.0
  0
LINE
  5
AE5E9
102
{ACAD_REACTORS
330
AE642
102
}
330
1F
100
AcDbEntity
  8
HI Detail 3
100
AcDbLine
 10
18.70367063326204
 20
-39.77106645309755
 30
0.0
 11
16.57198891283166
 21
-39.77106645309755
 31
0.0
  0
LINE
  5
AE5EA
102
{ACAD_REACTORS
330
AE642
102
}
330
1F
100
AcDbEntity
  8
HI Deatil 2
100
AcDbLine
 10
15.79807620740859
 20
-34.39773659561391
 30
0.0
 11
15.37378564044519
 21
-34.39773659561391
 31
0.0
  0
LINE
  5
AE5EB
102
{ACAD_REACTORS
330
AE642
102
}
330
1F
100
AcDbEntity
  8
HI Deatil 2
100
AcDbLine
 10
15.37378564044519
 20
-34.39773659561391
 30
0.0
 11
15.37378564044519
 21
-34.23589489201289
 31
0.0
  0
LINE
  5
AE5EC
102
{ACAD_REACTORS
330
AE642
102
}
330
1F
100
AcDbEntity
  8
HI Deatil 2
100
AcDbLine
 10
15.37378564044519
 20
-34.23589489201289
 30
0.0
 11
15.37378564044519
 21
-34.23257825347404
 31
0.0
  0
ARC
  5
AE5ED
102
{ACAD_REACTORS
330
AE642
102
}
330
1F
100
AcDbEntity
  8
HI Deatil 2
100
AcDbCircle
 10
15.36378564044518
 20
-34.23257825347404
 30
0.0
 40
0.0100000000000051
100
AcDbArc
 50
0.0
 51
126.5327755904136
  0
LINE
  5
AE5EE
102
{ACAD_REACTORS
330
AE642
102
}
330
1F
100
AcDbEntity
  8
HI Deatil 2
100
AcDbLine
 10
15.35783281515254
 20
-34.22454308881889
 30
0.0
 11
15.34251007287258
 21
-34.23589489201289
 31
0.0
  0
LINE
  5
AE5EF
102
{ACAD_REACTORS
330
AE642
102
}
330
1F
100
AcDbEntity
  8
HI Deatil 2
100
AcDbLine
 10
15.34251007287257
 20
-34.23589489201289
 30
0.0
 11
15.12405502462617
 21
-34.39773659561391
 31
0.0
  0
LINE
  5
AE5F0
102
{ACAD_REACTORS
330
AE642
102
}
330
1F
100
AcDbEntity
  8
HI Deatil 2
100
AcDbLine
 10
15.12405502462617
 20
-34.39773659561391
 30
0.0
 11
12.89004779645115
 21
-34.39773659561391
 31
0.0
  0
LINE
  5
AE5F1
102
{ACAD_REACTORS
330
AE642
102
}
330
1F
100
AcDbEntity
  8
HI Deatil 2
100
AcDbLine
 10
10.92034110010269
 20
-34.39773659561391
 30
0.0
 11
9.341040393634088
 21
-34.39773659561391
 31
0.0
  0
LINE
  5
AE5F2
102
{ACAD_REACTORS
330
AE642
102
}
330
1F
100
AcDbEntity
  8
HI Deatil 2
100
AcDbLine
 10
15.79807620740859
 20
-35.60088465660076
 30
0.0
 11
15.37378564044519
 21
-35.60088465660076
 31
0.0
  0
LINE
  5
AE5F3
102
{ACAD_REACTORS
330
AE642
102
}
330
1F
100
AcDbEntity
  8
HI Deatil 2
100
AcDbLine
 10
15.37378564044519
 20
-35.60088465660076
 30
0.0
 11
15.37378564044519
 21
-35.76604299874064
 31
0.0
  0
ARC
  5
AE5F4
102
{ACAD_REACTORS
330
AE642
102
}
330
1F
100
AcDbEntity
  8
HI Deatil 2
100
AcDbCircle
 10
15.36378564044518
 20
-35.76604299874064
 30
0.0
 40
0.0100000000000051
100
AcDbArc
 50
233.4672244095863
 51
0.0
  0
LINE
  5
AE5F5
102
{ACAD_REACTORS
330
AE642
102
}
330
1F
100
AcDbEntity
  8
HI Deatil 2
100
AcDbLine
 10
15.35783281515254
 20
-35.77407816339579
 30
0.0
 11
15.12405502462617
 21
-35.60088465660076
 31
0.0
  0
LINE
  5
AE5F6
102
{ACAD_REACTORS
330
AE642
102
}
330
1F
100
AcDbEntity
  8
HI Deatil 2
100
AcDbLine
 10
15.12405502462617
 20
-35.60088465660076
 30
0.0
 11
12.89004779645119
 21
-35.60088465660076
 31
0.0
  0
LINE
  5
AE5F7
102
{ACAD_REACTORS
330
AE642
102
}
330
1F
100
AcDbEntity
  8
HI Deatil 2
100
AcDbLine
 10
10.92034110010272
 20
-35.60088465660076
 30
0.0
 11
9.341040393634031
 21
-35.60088465660076
 31
0.0
  0
LINE
  5
AE5F8
102
{ACAD_REACTORS
330
AE642
102
}
330
1F
100
AcDbEntity
  8
HI Deatil 2
100
AcDbLine
 10
11.28677407550454
 20
-34.39773659561391
 30
0.0
 11
12.52361482104926
 21
-34.39773659561391
 31
0.0
  0
LWPOLYLINE
  5
AE5F9
102
{ACAD_REACTORS
330
AE642
102
}
330
1F
100
AcDbEntity
  8
HI Deatil 2
100
AcDbPolyline
 90
        2
 70
     0
 43
0.0
 10
11.28677407550454
 20
-34.39773659561391
 10
12.52361482104926
 20
-34.39773659561391
  0
LWPOLYLINE
  5
AE5FA
102
{ACAD_REACTORS
330
AE642
102
}
330
1F
100
AcDbEntity
  8
HI Deatil 2
100
AcDbPolyline
 90
        2
 70
     0
 43
0.0
 10
11.28677407550458
 20
-35.60088465660076
 10
12.52361482104929
 20
-35.60088465660076
  0
LWPOLYLINE
  5
AE5FB
102
{ACAD_REACTORS
330
AE642
102
}
330
1F
100
AcDbEntity
  8
HI Deatil 2
100
AcDbPolyline
 90
        2
 70
     0
 43
0.0
 10
10.92034110010269
 20
-34.39773659561391
 10
11.01715119949013
 20
-34.31834562097317
  0
LWPOLYLINE
  5
AE5FC
102
{ACAD_REACTORS
330
AE642
102
}
330
1F
100
AcDbEntity
  8
HI Deatil 2
100
AcDbPolyline
 90
        2
 70
     0
 43
0.0
 10
11.28677407550454
 20
-34.39773659561391
 10
11.18752002311782
 20
-34.31766300317085
  0
ARC
  5
AE5FD
102
{ACAD_REACTORS
330
AE642
102
}
330
1F
100
AcDbEntity
  8
HI Deatil 2
100
AcDbCircle
 10
11.10278234867631
 20
-34.42950172736161
 30
0.0
 40
0.1403152653790171
100
AcDbArc
 50
52.84961315188587
 51
127.6095190880154
  0
LWPOLYLINE
  5
AE5FE
102
{ACAD_REACTORS
330
AE642
102
}
330
1F
100
AcDbEntity
  8
HI HATCH FILL
100
AcDbPolyline
 90
        2
 70
     0
 43
0.0
 10
11.10222015116142
 20
-34.60128314709176
 10
11.10222015116142
 20
-35.39860197662497
  0
LWPOLYLINE
  5
AE5FF
102
{ACAD_REACTORS
330
AE642
102
}
330
1F
100
AcDbEntity
  8
HI Deatil 2
100
AcDbPolyline
 90
        2
 70
     0
 43
0.0
 10
10.92034110010272
 20
-35.60088465660076
 10
11.01715119949018
 20
-35.68027563124149
  0
LWPOLYLINE
  5
AE600
102
{ACAD_REACTORS
330
AE642
102
}
330
1F
100
AcDbEntity
  8
HI Deatil 2
100
AcDbPolyline
 90
        2
 70
     0
 43
0.0
 10
11.28677407550458
 20
-35.60088465660076
 10
11.18752002311786
 20
-35.68095824904385
  0
ARC
  5
AE601
102
{ACAD_REACTORS
330
AE642
102
}
330
1F
100
AcDbEntity
  8
HI Deatil 2
100
AcDbCircle
 10
11.10278234867635
 20
-35.56911952485307
 30
0.0
 40
0.1403152653790171
100
AcDbArc
 50
232.3904809119843
 51
307.1503868481141
  0
LWPOLYLINE
  5
AE602
102
{ACAD_REACTORS
330
AE642
102
}
330
1F
100
AcDbEntity
  8
HI Deatil 2
100
AcDbPolyline
 90
        2
 70
     0
 43
0.0
 10
12.52361482104926
 20
-34.39773659561391
 10
12.62042492043678
 20
-34.31834562097317
  0
LWPOLYLINE
  5
AE603
102
{ACAD_REACTORS
330
AE642
102
}
330
1F
100
AcDbEntity
  8
HI Deatil 2
100
AcDbPolyline
 90
        2
 70
     0
 43
0.0
 10
12.89004779645115
 20
-34.39773659561391
 10
12.79079374406443
 20
-34.31766300317085
  0
ARC
  5
AE604
102
{ACAD_REACTORS
330
AE642
102
}
330
1F
100
AcDbEntity
  8
HI Deatil 2
100
AcDbCircle
 10
12.70605606962292
 20
-34.42950172736161
 30
0.0
 40
0.1403152653790171
100
AcDbArc
 50
52.84961315188587
 51
127.6095190880154
  0
LWPOLYLINE
  5
AE605
102
{ACAD_REACTORS
330
AE642
102
}
330
1F
100
AcDbEntity
  8
HI HATCH FILL
100
AcDbPolyline
 90
        2
 70
     0
 43
0.0
 10
12.70549387210802
 20
-34.60128314709176
 10
12.70549387210802
 20
-35.39860197662497
  0
LWPOLYLINE
  5
AE606
102
{ACAD_REACTORS
330
AE642
102
}
330
1F
100
AcDbEntity
  8
HI Deatil 2
100
AcDbPolyline
 90
        2
 70
     0
 43
0.0
 10
12.52361482104929
 20
-35.60088465660076
 10
12.62042492043682
 20
-35.68027563124149
  0
LWPOLYLINE
  5
AE607
102
{ACAD_REACTORS
330
AE642
102
}
330
1F
100
AcDbEntity
  8
HI Deatil 2
100
AcDbPolyline
 90
        2
 70
     0
 43
0.0
 10
12.89004779645119
 20
-35.60088465660076
 10
12.79079374406446
 20
-35.68095824904385
  0
ARC
  5
AE608
102
{ACAD_REACTORS
330
AE642
102
}
330
1F
100
AcDbEntity
  8
HI Deatil 2
100
AcDbCircle
 10
12.70605606962296
 20
-35.56911952485307
 30
0.0
 40
0.1403152653790171
100
AcDbArc
 50
232.3904809119843
 51
307.1503868481141
  0
CIRCLE
  5
AE609
102
{ACAD_REACTORS
330
AE642
102
}
330
1F
100
AcDbEntity
  8
HI HATCH FILL
100
AcDbCircle
 10
11.90385701163467
 20
-34.99994256185834
 30
0.0
 40
0.1335487093825943
  0
LWPOLYLINE
  5
AE60A
102
{ACAD_REACTORS
330
AE642
102
}
330
1F
100
AcDbEntity
  8
HI Deatil 2
100
AcDbPolyline
 90
        9
 70
     0
 43
0.0
 10
9.341040393634031
 20
-35.60088465660076
 42
-0.1101571609056298
 10
9.256367238197828
 20
-35.57817036813336
 42
-0.1057590127341276
 10
9.178416279286519
 20
-35.51160670318028
 42
-0.0867856854738797
 10
9.129353251742383
 20
-35.41740229936634
 42
-0.0769067693278619
 10
9.111055165554798
 20
-35.29914314253551
 42
-0.0769067693278682
 10
9.129353251742383
 20
-35.18088398570474
 42
-0.0867856854738818
 10
9.178416279286519
 20
-35.0866795818908
 42
-0.1057590127341198
 10
9.256367238197828
 20
-35.02011591693774
 42
-0.1246468737829422
 10
9.341040393634031
 20
-34.99867429356166
 42
-0.1246468737829503
  0
LWPOLYLINE
  5
AE60B
102
{ACAD_REACTORS
330
AE642
102
}
330
1F
100
AcDbEntity
  8
HI Deatil 2
100
AcDbPolyline
 90
       16
 70
     1
 43
0.0
 10
9.341040393634031
 20
-34.39773659561391
 42
0.124646873782944
 10
9.256367238197828
 20
-34.41917821899
 42
0.1057590127341276
 10
9.178416279286519
 20
-34.48574188394307
 42
0.0867856854738797
 10
9.129353251742383
 20
-34.57994628775701
 42
0.0769067693278619
 10
9.111055165554798
 20
-34.69820544458778
 42
0.0769067693278682
 10
9.129353251742383
 20
-34.8164646014186
 42
0.0867856854738818
 10
9.178416279286519
 20
-34.91066900523255
 42
0.1057590127341198
 10
9.256367238197828
 20
-34.97723267018559
 42
0.1246468737829424
 10
9.341040393634031
 20
-34.99867429356166
 42
0.1246468737829503
 10
9.425713549070135
 20
-34.97723267018559
 42
0.1057590127341277
 10
9.503664507981639
 20
-34.91066900523255
 42
0.0867856854738795
 10
9.552727535525679
 20
-34.8164646014186
 42
0.0769067693278642
 10
9.571025621713165
 20
-34.69820544458778
 42
0.0769067693278658
 10
9.552727535525679
 20
-34.57994628775701
 42
0.086785685473882
 10
9.503664507981639
 20
-34.48574188394307
 42
0.105759012734127
 10
9.425713549070135
 20
-34.41917821899
 42
0.1246468737829392
  0
LWPOLYLINE
  5
AE60C
102
{ACAD_REACTORS
330
AE640
102
}
330
1F
100
AcDbEntity
  8
HI Detail 3
100
AcDbPolyline
 90
        2
 70
     0
 43
0.0
 10
21.62419893858031
 20
-21.87457110844455
 10
24.202480161682
 20
-21.87457110844455
  0
LWPOLYLINE
  5
AE60D
102
{ACAD_REACTORS
330
AE640
102
}
330
1F
100
AcDbEntity
  8
HI Detail 3
100
AcDbPolyline
 90
        9
 70
     0
 43
0.0
 10
24.202480161682
 20
-23.76353970488393
 42
0.1018838514463844
 10
24.33533803180372
 20
-23.72675101161045
 42
0.1057590127341276
 10
24.45764832390921
 20
-23.62230814884482
 42
0.0867856854738797
 10
24.53463151070143
 20
-23.47449510960797
 42
0.0769067693278619
 10
24.56334243738961
 20
-23.28893854663375
 42
0.0769067693278682
 10
24.53463151070143
 20
-23.10338198365961
 42
0.0867856854738818
 10
24.45764832390921
 20
-22.95556894442277
 42
0.1057590127341198
 10
24.33533803180372
 20
-22.85112608165718
 42
0.1246468737829422
 10
24.20248016168209
 20
-22.81748273390403
 42
0.1246468737829503
  0
LWPOLYLINE
  5
AE60E
102
{ACAD_REACTORS
330
AE640
102
}
330
1F
100
AcDbEntity
  8
HI Detail 3
100
AcDbPolyline
 90
       16
 70
     1
 43
0.0
 10
24.20248016168209
 20
-21.87457110844455
 42
-0.124646873782944
 10
24.33533803180372
 20
-21.90821445619771
 42
-0.1057590127341276
 10
24.45764832390921
 20
-22.0126573189633
 42
-0.0867856854738797
 10
24.53463151070143
 20
-22.16047035820014
 42
-0.0769067693278619
 10
24.56334243738961
 20
-22.34602692117428
 42
-0.0769067693278682
 10
24.53463151070143
 20
-22.53158348414849
 42
-0.0867856854738818
 10
24.45764832390921
 20
-22.67939652338534
 42
-0.1057590127341198
 10
24.33533803180372
 20
-22.78383938615091
 42
-0.1246468737829424
 10
24.20248016168209
 20
-22.81748273390403
 42
-0.1246468737829503
 10
24.06962229156061
 20
-22.78383938615091
 42
-0.1057590127341277
 10
23.94731199945481
 20
-22.67939652338534
 42
-0.0867856854738795
 10
23.87032881266273
 20
-22.53158348414849
 42
-0.0769067693278642
 10
23.84161788597471
 20
-22.34602692117428
 42
-0.0769067693278658
 10
23.87032881266273
 20
-22.16047035820014
 42
-0.086785685473882
 10
23.94731199945481
 20
-22.0126573189633
 42
-0.105759012734127
 10
24.06962229156061
 20
-21.90821445619771
 42
-0.1246468737829392
  0
LWPOLYLINE
  5
AE60F
102
{ACAD_REACTORS
330
AE640
102
}
330
1F
100
AcDbEntity
  8
HI Detail 3
100
AcDbPolyline
 90
        2
 70
     0
 43
0.0
 10
21.62419893858031
 20
-23.76353970488393
 10
24.202480161682
 20
-23.76353970488393
  0
LWPOLYLINE
  5
AE611
102
{ACAD_REACTORS
330
AE642
102
}
330
1F
100
AcDbEntity
  8
HI Detail 3
100
AcDbPolyline
 90
        2
 70
     0
 43
0.0
 10
18.58231407126655
 20
-39.77106645309755
 10
18.58231407126655
 20
-42.34934767619924
  0
LWPOLYLINE
  5
AE612
102
{ACAD_REACTORS
330
AE642
102
}
330
1F
100
AcDbEntity
  8
HI Detail 3
100
AcDbPolyline
 90
        9
 70
     0
 43
0.0
 10
16.69334547482716
 20
-42.34934767619924
 42
0.1018838514463844
 10
16.73013416810064
 20
-42.48220554632095
 42
0.1057590127341276
 10
16.83457703086627
 20
-42.60451583842645
 42
0.0867856854738797
 10
16.98239007010312
 20
-42.68149902521867
 42
0.0769067693278619
 10
17.16794663307734
 20
-42.71020995190684
 42
0.0769067693278682
 10
17.35350319605148
 20
-42.68149902521867
 42
0.0867856854738818
 10
17.50131623528831
 20
-42.60451583842645
 42
0.1057590127341198
 10
17.60575909805391
 20
-42.48220554632095
 42
0.1246468737829422
 10
17.63940244580706
 20
-42.34934767619932
 42
0.1246468737829503
  0
LWPOLYLINE
  5
AE613
102
{ACAD_REACTORS
330
AE642
102
}
330
1F
100
AcDbEntity
  8
HI Detail 3
100
AcDbPolyline
 90
       16
 70
     1
 43
0.0
 10
18.58231407126655
 20
-42.34934767619932
 42
-0.124646873782944
 10
18.54867072351338
 20
-42.48220554632095
 42
-0.1057590127341276
 10
18.44422786074779
 20
-42.60451583842645
 42
-0.0867856854738797
 10
18.29641482151095
 20
-42.68149902521867
 42
-0.0769067693278619
 10
18.11085825853682
 20
-42.71020995190684
 42
-0.0769067693278682
 10
17.9253016955626
 20
-42.68149902521867
 42
-0.0867856854738818
 10
17.77748865632575
 20
-42.60451583842645
 42
-0.1057590127341198
 10
17.67304579356018
 20
-42.48220554632095
 42
-0.1246468737829424
 10
17.63940244580706
 20
-42.34934767619932
 42
-0.1246468737829503
 10
17.67304579356018
 20
-42.21648980607784
 42
-0.1057590127341277
 10
17.77748865632575
 20
-42.09417951397205
 42
-0.0867856854738795
 10
17.9253016955626
 20
-42.01719632717997
 42
-0.0769067693278642
 10
18.11085825853682
 20
-41.98848540049195
 42
-0.0769067693278658
 10
18.29641482151095
 20
-42.01719632717997
 42
-0.086785685473882
 10
18.44422786074779
 20
-42.09417951397205
 42
-0.105759012734127
 10
18.54867072351338
 20
-42.21648980607784
 42
-0.1246468737829392
  0
LWPOLYLINE
  5
AE614
102
{ACAD_REACTORS
330
AE642
102
}
330
1F
100
AcDbEntity
  8
HI Detail 3
100
AcDbPolyline
 90
        2
 70
     0
 43
0.0
 10
16.69334547482716
 20
-39.77106645309755
 10
16.69334547482716
 20
-42.34934767619924
  0
LINE
  5
AE615
102
{ACAD_REACTORS
330
AE642
102
}
330
1F
100
AcDbEntity
  8
HI Deatil 2
100
AcDbLine
 10
19.47758333868512
 20
-34.39773659561391
 30
0.0
 11
19.90187390564853
 21
-34.39773659561391
 31
0.0
  0
LINE
  5
AE616
102
{ACAD_REACTORS
330
AE642
102
}
330
1F
100
AcDbEntity
  8
HI Deatil 2
100
AcDbLine
 10
19.90187390564853
 20
-34.39773659561391
 30
0.0
 11
19.90187390564853
 21
-34.23589489201289
 31
0.0
  0
LINE
  5
AE617
102
{ACAD_REACTORS
330
AE642
102
}
330
1F
100
AcDbEntity
  8
HI Deatil 2
100
AcDbLine
 10
19.90187390564853
 20
-34.23589489201289
 30
0.0
 11
19.90187390564853
 21
-34.23257825347404
 31
0.0
  0
ARC
  5
AE618
102
{ACAD_REACTORS
330
AE642
102
}
330
1F
100
AcDbEntity
  8
HI Deatil 2
100
AcDbCircle
 10
19.91187390564854
 20
-34.23257825347404
 30
0.0
 40
0.0100000000000051
100
AcDbArc
 50
53.46722440958645
 51
180.0
  0
LINE
  5
AE619
102
{ACAD_REACTORS
330
AE642
102
}
330
1F
100
AcDbEntity
  8
HI Deatil 2
100
AcDbLine
 10
19.91782673094117
 20
-34.22454308881889
 30
0.0
 11
19.93314947322114
 21
-34.23589489201289
 31
0.0
  0
LINE
  5
AE61A
102
{ACAD_REACTORS
330
AE642
102
}
330
1F
100
AcDbEntity
  8
HI Deatil 2
100
AcDbLine
 10
19.93314947322114
 20
-34.23589489201289
 30
0.0
 11
20.15160452146755
 21
-34.39773659561391
 31
0.0
  0
LINE
  5
AE61B
102
{ACAD_REACTORS
330
AE642
102
}
330
1F
100
AcDbEntity
  8
HI Deatil 2
100
AcDbLine
 10
20.15160452146755
 20
-34.39773659561391
 30
0.0
 11
22.38561174964257
 21
-34.39773659561391
 31
0.0
  0
LINE
  5
AE61C
102
{ACAD_REACTORS
330
AE642
102
}
330
1F
100
AcDbEntity
  8
HI Deatil 2
100
AcDbLine
 10
24.35531844599103
 20
-34.39773659561391
 30
0.0
 11
25.93461915245963
 21
-34.39773659561391
 31
0.0
  0
LINE
  5
AE61D
102
{ACAD_REACTORS
330
AE642
102
}
330
1F
100
AcDbEntity
  8
HI Deatil 2
100
AcDbLine
 10
19.47758333868513
 20
-35.60088465660076
 30
0.0
 11
19.90187390564853
 21
-35.60088465660076
 31
0.0
  0
LINE
  5
AE61E
102
{ACAD_REACTORS
330
AE642
102
}
330
1F
100
AcDbEntity
  8
HI Deatil 2
100
AcDbLine
 10
19.90187390564853
 20
-35.60088465660076
 30
0.0
 11
19.90187390564853
 21
-35.76604299874064
 31
0.0
  0
ARC
  5
AE61F
102
{ACAD_REACTORS
330
AE642
102
}
330
1F
100
AcDbEntity
  8
HI Deatil 2
100
AcDbCircle
 10
19.91187390564854
 20
-35.76604299874064
 30
0.0
 40
0.0100000000000051
100
AcDbArc
 50
180.0
 51
306.5327755904136
  0
LINE
  5
AE620
102
{ACAD_REACTORS
330
AE642
102
}
330
1F
100
AcDbEntity
  8
HI Deatil 2
100
AcDbLine
 10
19.91782673094117
 20
-35.77407816339579
 30
0.0
 11
20.15160452146755
 21
-35.60088465660076
 31
0.0
  0
LINE
  5
AE621
102
{ACAD_REACTORS
330
AE642
102
}
330
1F
100
AcDbEntity
  8
HI Deatil 2
100
AcDbLine
 10
20.15160452146755
 20
-35.60088465660076
 30
0.0
 11
22.38561174964253
 21
-35.60088465660076
 31
0.0
  0
LINE
  5
AE622
102
{ACAD_REACTORS
330
AE642
102
}
330
1F
100
AcDbEntity
  8
HI Deatil 2
100
AcDbLine
 10
24.355318445991
 20
-35.60088465660076
 30
0.0
 11
25.93461915245969
 21
-35.60088465660076
 31
0.0
  0
LINE
  5
AE623
102
{ACAD_REACTORS
330
AE642
102
}
330
1F
100
AcDbEntity
  8
HI Deatil 2
100
AcDbLine
 10
23.98888547058918
 20
-34.39773659561391
 30
0.0
 11
22.75204472504446
 21
-34.39773659561391
 31
0.0
  0
LWPOLYLINE
  5
AE624
102
{ACAD_REACTORS
330
AE642
102
}
330
1F
100
AcDbEntity
  8
HI Deatil 2
100
AcDbPolyline
 90
        2
 70
     0
 43
0.0
 10
23.98888547058918
 20
-34.39773659561391
 10
22.75204472504446
 20
-34.39773659561391
  0
LWPOLYLINE
  5
AE625
102
{ACAD_REACTORS
330
AE642
102
}
330
1F
100
AcDbEntity
  8
HI Deatil 2
100
AcDbPolyline
 90
        2
 70
     0
 43
0.0
 10
23.98888547058914
 20
-35.60088465660076
 10
22.75204472504443
 20
-35.60088465660076
  0
LWPOLYLINE
  5
AE626
102
{ACAD_REACTORS
330
AE642
102
}
330
1F
100
AcDbEntity
  8
HI Deatil 2
100
AcDbPolyline
 90
        2
 70
     0
 43
0.0
 10
24.35531844599103
 20
-34.39773659561391
 10
24.25850834660359
 20
-34.31834562097317
  0
LWPOLYLINE
  5
AE627
102
{ACAD_REACTORS
330
AE642
102
}
330
1F
100
AcDbEntity
  8
HI Deatil 2
100
AcDbPolyline
 90
        2
 70
     0
 43
0.0
 10
23.98888547058918
 20
-34.39773659561391
 10
24.0881395229759
 20
-34.31766300317085
  0
ARC
  5
AE628
102
{ACAD_REACTORS
330
AE642
102
}
330
1F
100
AcDbEntity
  8
HI Deatil 2
100
AcDbCircle
 10
24.17287719741741
 20
-34.42950172736161
 30
0.0
 40
0.1403152653790171
100
AcDbArc
 50
52.39048091198458
 51
127.1503868481141
  0
LWPOLYLINE
  5
AE629
102
{ACAD_REACTORS
330
AE642
102
}
330
1F
100
AcDbEntity
  8
HI HATCH FILL
100
AcDbPolyline
 90
        2
 70
     0
 43
0.0
 10
24.17343939493231
 20
-34.60128314709176
 10
24.17343939493231
 20
-35.39860197662497
  0
LWPOLYLINE
  5
AE62A
102
{ACAD_REACTORS
330
AE642
102
}
330
1F
100
AcDbEntity
  8
HI Deatil 2
100
AcDbPolyline
 90
        2
 70
     0
 43
0.0
 10
24.355318445991
 20
-35.60088465660076
 10
24.25850834660354
 20
-35.68027563124149
  0
LWPOLYLINE
  5
AE62B
102
{ACAD_REACTORS
330
AE642
102
}
330
1F
100
AcDbEntity
  8
HI Deatil 2
100
AcDbPolyline
 90
        2
 70
     0
 43
0.0
 10
23.98888547058914
 20
-35.60088465660076
 10
24.08813952297586
 20
-35.68095824904385
  0
ARC
  5
AE62C
102
{ACAD_REACTORS
330
AE642
102
}
330
1F
100
AcDbEntity
  8
HI Deatil 2
100
AcDbCircle
 10
24.17287719741736
 20
-35.56911952485307
 30
0.0
 40
0.1403152653790171
100
AcDbArc
 50
232.8496131518859
 51
307.6095190880157
  0
LWPOLYLINE
  5
AE62D
102
{ACAD_REACTORS
330
AE642
102
}
330
1F
100
AcDbEntity
  8
HI Deatil 2
100
AcDbPolyline
 90
        2
 70
     0
 43
0.0
 10
22.75204472504446
 20
-34.39773659561391
 10
22.65523462565694
 20
-34.31834562097317
  0
LWPOLYLINE
  5
AE62E
102
{ACAD_REACTORS
330
AE642
102
}
330
1F
100
AcDbEntity
  8
HI Deatil 2
100
AcDbPolyline
 90
        2
 70
     0
 43
0.0
 10
22.38561174964257
 20
-34.39773659561391
 10
22.48486580202929
 20
-34.31766300317085
  0
ARC
  5
AE62F
102
{ACAD_REACTORS
330
AE642
102
}
330
1F
100
AcDbEntity
  8
HI Deatil 2
100
AcDbCircle
 10
22.5696034764708
 20
-34.42950172736161
 30
0.0
 40
0.1403152653790171
100
AcDbArc
 50
52.39048091198458
 51
127.1503868481141
  0
LWPOLYLINE
  5
AE630
102
{ACAD_REACTORS
330
AE642
102
}
330
1F
100
AcDbEntity
  8
HI HATCH FILL
100
AcDbPolyline
 90
        2
 70
     0
 43
0.0
 10
22.5701656739857
 20
-34.60128314709176
 10
22.5701656739857
 20
-35.39860197662497
  0
LWPOLYLINE
  5
AE631
102
{ACAD_REACTORS
330
AE642
102
}
330
1F
100
AcDbEntity
  8
HI Deatil 2
100
AcDbPolyline
 90
        2
 70
     0
 43
0.0
 10
22.75204472504443
 20
-35.60088465660076
 10
22.6552346256569
 20
-35.68027563124149
  0
LWPOLYLINE
  5
AE632
102
{ACAD_REACTORS
330
AE642
102
}
330
1F
100
AcDbEntity
  8
HI Deatil 2
100
AcDbPolyline
 90
        2
 70
     0
 43
0.0
 10
22.38561174964253
 20
-35.60088465660076
 10
22.48486580202925
 20
-35.68095824904385
  0
ARC
  5
AE633
102
{ACAD_REACTORS
330
AE642
102
}
330
1F
100
AcDbEntity
  8
HI Deatil 2
100
AcDbCircle
 10
22.56960347647076
 20
-35.56911952485307
 30
0.0
 40
0.1403152653790171
100
AcDbArc
 50
232.8496131518859
 51
307.6095190880157
  0
CIRCLE
  5
AE634
102
{ACAD_REACTORS
330
AE642
102
}
330
1F
100
AcDbEntity
  8
HI HATCH FILL
100
AcDbCircle
 10
23.37180253445904
 20
-34.99994256185834
 30
0.0
 40
0.1335487093825943
  0
LWPOLYLINE
  5
AE635
102
{ACAD_REACTORS
330
AE642
102
}
330
1F
100
AcDbEntity
  8
HI Deatil 2
100
AcDbPolyline
 90
        9
 70
     0
 43
0.0
 10
25.93461915245969
 20
-35.60088465660076
 42
0.1101571609056298
 10
26.0192923078959
 20
-35.57817036813336
 42
0.1057590127341276
 10
26.0972432668072
 20
-35.51160670318028
 42
0.0867856854738797
 10
26.14630629435133
 20
-35.41740229936634
 42
0.0769067693278619
 10
26.16460438053892
 20
-35.29914314253551
 42
0.0769067693278682
 10
26.14630629435133
 20
-35.18088398570474
 42
0.0867856854738818
 10
26.0972432668072
 20
-35.0866795818908
 42
0.1057590127341198
 10
26.0192923078959
 20
-35.02011591693774
 42
0.1246468737829422
 10
25.93461915245969
 20
-34.99867429356166
 42
0.1246468737829503
  0
LWPOLYLINE
  5
AE636
102
{ACAD_REACTORS
330
AE642
102
}
330
1F
100
AcDbEntity
  8
HI Deatil 2
100
AcDbPolyline
 90
       16
 70
     1
 43
0.0
 10
25.93461915245969
 20
-34.39773659561391
 42
-0.124646873782944
 10
26.0192923078959
 20
-34.41917821899
 42
-0.1057590127341276
 10
26.0972432668072
 20
-34.48574188394307
 42
-0.0867856854738797
 10
26.14630629435133
 20
-34.57994628775701
 42
-0.0769067693278619
 10
26.16460438053892
 20
-34.69820544458778
 42
-0.0769067693278682
 10
26.14630629435133
 20
-34.8164646014186
 42
-0.0867856854738818
 10
26.0972432668072
 20
-34.91066900523255
 42
-0.1057590127341198
 10
26.0192923078959
 20
-34.97723267018559
 42
-0.1246468737829424
 10
25.93461915245969
 20
-34.99867429356166
 42
-0.1246468737829503
 10
25.84994599702358
 20
-34.97723267018559
 42
-0.1057590127341277
 10
25.77199503811208
 20
-34.91066900523255
 42
-0.0867856854738795
 10
25.72293201056805
 20
-34.8164646014186
 42
-0.0769067693278642
 10
25.70463392438056
 20
-34.69820544458778
 42
-0.0769067693278658
 10
25.72293201056805
 20
-34.57994628775701
 42
-0.086785685473882
 10
25.77199503811208
 20
-34.48574188394307
 42
-0.105759012734127
 10
25.84994599702358
 20
-34.41917821899
 42
-0.1246468737829392
  0
LWPOLYLINE
  5
AE638
102
{ACAD_REACTORS
330
AE641
102
}
330
1F
100
AcDbEntity
  8
HI Detail 3
100
AcDbPolyline
 90
        9
 70
     0
 43
0.0
 10
24.23781672480048
 20
-29.82165667258523
 42
0.0969289015630089
 10
24.34465502552204
 20
-29.79151731815565
 42
0.1057590127341276
 10
24.44301144021791
 20
-29.70752908343424
 42
0.0867856854738797
 10
24.50491784330469
 20
-29.5886645109247
 42
0.0769067693278619
 10
24.52800587427113
 20
-29.43944830071656
 42
0.0769067693278682
 10
24.50491784330469
 20
-29.29023209050848
 42
0.0867856854738818
 10
24.44301144021791
 20
-29.17136751799894
 42
0.1057590127341198
 10
24.34465502552204
 20
-29.08737928327756
 42
0.1246468737829422
 10
24.23781672480061
 20
-29.06032482198569
 42
0.1246468737829503
  0
LWPOLYLINE
  5
AE639
102
{ACAD_REACTORS
330
AE641
102
}
330
1F
100
AcDbEntity
  8
HI Detail 3
100
AcDbPolyline
 90
       16
 70
     1
 43
0.0
 10
24.23781672480061
 20
-28.30207786452391
 42
-0.124646873782944
 10
24.34465502552204
 20
-28.3291323258158
 42
-0.1057590127341276
 10
24.44301144021791
 20
-28.41312056053718
 42
-0.0867856854738797
 10
24.50491784330469
 20
-28.53198513304672
 42
-0.0769067693278619
 10
24.52800587427113
 20
-28.68120134325479
 42
-0.0769067693278682
 10
24.50491784330469
 20
-28.83041755346294
 42
-0.0867856854738818
 10
24.44301144021791
 20
-28.94928212597247
 42
-0.1057590127341198
 10
24.34465502552204
 20
-29.03327036069384
 42
-0.1246468737829424
 10
24.23781672480061
 20
-29.06032482198569
 42
-0.1246468737829503
 10
24.13097842407929
 20
-29.03327036069384
 42
-0.1057590127341277
 10
24.03262200938317
 20
-28.94928212597247
 42
-0.0867856854738795
 10
23.9707156062965
 20
-28.83041755346294
 42
-0.0769067693278642
 10
23.94762757533019
 20
-28.68120134325479
 42
-0.0769067693278658
 10
23.9707156062965
 20
-28.53198513304672
 42
-0.086785685473882
 10
24.03262200938317
 20
-28.41312056053718
 42
-0.105759012734127
 10
24.13097842407929
 20
-28.3291323258158
 42
-0.1246468737829392
  0
LWPOLYLINE
  5
AE63B
102
{ACAD_REACTORS
330
AE641
102
}
330
1F
100
AcDbEntity
  8
HI Detail 3
100
AcDbPolyline
 90
        2
 70
     0
 43
0.0
 10
21.65953550169879
 20
-28.30207786452391
 10
24.23781672480048
 20
-28.30207786452391
  0
LWPOLYLINE
  5
AE63C
102
{ACAD_REACTORS
330
AE641
102
}
330
1F
100
AcDbEntity
  8
HI Detail 3
100
AcDbPolyline
 90
        2
 70
     0
 43
0.0
 10
21.65953550169879
 20
-29.82165667258523
 10
24.23781672480048
 20
-29.82165667258523
  0
MTEXT
  5
AE645
330
1F
100
AcDbEntity
  8
HI Text
100
AcDbMText
 10
17.63782977304686
 20
-24.67353286337161
 30
0.0
 40
0.5624999999999999
 41
0.0
 46
0.0
 71
     5
 72
     1
  1
{\fArial|b0|i0|c0|p34;PLD-075}
  7
Hunter
 73
     1
 44
1.0
  0
MTEXT
  5
AE646
330
1F
100
AcDbEntity
  8
HI Text
100
AcDbMText
 10
17.63782977304686
 20
-30.89527897704485
 30
0.0
 40
0.5624999999999999
 41
0.0
 46
0.0
 71
     5
 72
     1
  1
{\fArial|b0|i0|c0|p34;PLD-050}
  7
Hunter
 73
     1
 44
1.0
  0
MTEXT
  5
AE647
330
1F
100
AcDbEntity
  8
HI Text
100
AcDbMText
 10
17.63782977304686
 20
-43.65633488590036
 30
0.0
 40
0.5624999999999999
 41
0.0
 46
0.0
 71
     5
 72
     1
  1
{\fArial|b0|i0|c0|p34;PLD-075-TBTEE}
  7
Hunter
 73
     1
 44
1.0
  0
MTEXT
  5
AE65E
330
1F
100
AcDbEntity
  8
HI Text
100
AcDbMText
 10
28.4522714952866
 20
-24.15151133830337
 30
0.0
 40
0.5
 41
0.0
 46
0.0
 71
     6
 72
     1
  1
{\fArial|b0|i0|c0|p34;1}
  7
Hunter
 73
     1
 44
1.0
  0
LEADER
  5
AE65F
330
1F
100
AcDbEntity
  8
HI Text
100
AcDbLeader
  3
LandMatters
 76
     3
 10
15.05438852443013
 20
-28.46016964324793
 30
0.0
 10
27.26250513645198
 20
-24.18186483995762
 30
0.0
 10
27.8579405251835
 20
-24.18186483995766
 30
0.0
211
-0.0000000000000002
221
-1.0
231
0.0
1001
ACAD
1000
DSTYLE
1002
{
1070
    41
1040
0.5
1002
}
  0
CIRCLE
  5
AE660
330
1F
100
AcDbEntity
  8
HI Text
100
AcDbCircle
 10
28.36929314750507
 20
-24.18186483995764
 30
0.0
 40
0.511352622321557
  0
MTEXT
  5
AE661
330
1F
100
AcDbEntity
  8
HI Text
100
AcDbMText
 10
28.46756183632806
 20
-25.1771019775651
 30
0.0
 40
0.5
 41
0.0
 46
0.0
 71
     6
 72
     1
  1
{\fArial|b0|i0|c0|p34;2}
  7
Hunter
 73
     1
 44
1.0
  0
LEADER
  5
AE662
330
1F
100
AcDbEntity
  8
HI Text
100
AcDbLeader
  3
LandMatters
 76
     3
 10
18.4020811756299
 20
-29.0880717673943
 30
0.0
 10
27.25131096411724
 20
-25.20745547921936
 30
0.0
 10
27.87323086622496
 20
-25.20745547921939
 30
0.0
211
-0.0000000000000002
221
-1.0
231
0.0
1001
ACAD
1000
DSTYLE
1002
{
1070
    41
1040
0.5
1002
}
  0
CIRCLE
  5
AE663
330
1F
100
AcDbEntity
  8
HI Text
100
AcDbCircle
 10
28.38458348854653
 20
-25.20745547921938
 30
0.0
 40
0.511352622321557
  0
MTEXT
  5
AE664
330
1F
100
AcDbEntity
  8
HI Text
100
AcDbMText
 10
28.48285217736953
 20
-26.20269261682684
 30
0.0
 40
0.5
 41
0.5059889325313582
 46
0.0
 71
     6
 72
     1
  1
{\fArial|b0|i0|c0|p34;3}
  7
Hunter
 73
     1
 44
1.0
  0
CIRCLE
  5
AE665
330
1F
100
AcDbEntity
  8
HI Text
100
AcDbCircle
 10
28.39987382958799
 20
-26.23304611848111
 30
0.0
 40
0.511352622321557
  0
LEADER
  5
AE666
330
1F
100
AcDbEntity
  8
HI Text
100
AcDbLeader
  3
LandMatters
 76
     3
 10
21.65953550169879
 20
-29.0880717673943
 30
0.0
 10
27.26660130515871
 20
-26.23304611848108
 30
0.0
 10
27.88852120726643
 20
-26.23304611848111
 30
0.0
211
-0.0000000000000002
221
-1.0
231
0.0
1001
ACAD
1000
DSTYLE
1002
{
1070
    41
1040
0.5
1002
}
  0
MTEXT
  5
AE667
330
1F
100
AcDbEntity
  8
HI Text
100
AcDbMText
 10
28.4522714952866
 20
-37.43779334909637
 30
0.0
 40
0.5
 41
0.0
 46
0.0
 71
     6
 72
     1
  1
{\fArial|b0|i0|c0|p34;1}
  7
Hunter
 73
     1
 44
1.0
  0
LEADER
  5
AE668
330
1F
100
AcDbEntity
  8
HI Text
100
AcDbLeader
  3
LandMatters
 76
     3
 10
19.47758333868512
 20
-34.99931062610734
 30
0.0
 10
27.26250513645198
 20
-37.46814685075062
 30
0.0
 10
27.8579405251835
 20
-37.46814685075066
 30
0.0
211
-0.0000000000000002
221
-1.0
231
0.0
1001
ACAD
1000
DSTYLE
1002
{
1070
    41
1040
0.5
1002
}
  0
CIRCLE
  5
AE669
330
1F
100
AcDbEntity
  8
HI Text
100
AcDbCircle
 10
28.36929314750507
 20
-37.46814685075064
 30
0.0
 40
0.511352622321557
  0
MTEXT
  5
AE66A
330
1F
100
AcDbEntity
  8
HI Text
100
AcDbMText
 10
28.46756183632806
 20
-38.4633839883581
 30
0.0
 40
0.5
 41
0.0
 46
0.0
 71
     6
 72
     1
  1
{\fArial|b0|i0|c0|p34;2}
  7
Hunter
 73
     1
 44
1.0
  0
LEADER
  5
AE66B
330
1F
100
AcDbEntity
  8
HI Text
100
AcDbLeader
  3
LandMatters
 76
     3
 10
12.84042077025783
 20
-35.64092145282231
 30
0.0
 10
27.25131096411724
 20
-38.49373749001236
 30
0.0
 10
27.87323086622496
 20
-38.49373749001239
 30
0.0
211
-0.0000000000000002
221
-1.0
231
0.0
1001
ACAD
1000
DSTYLE
1002
{
1070
    41
1040
0.5
1002
}
  0
CIRCLE
  5
AE66C
330
1F
100
AcDbEntity
  8
HI Text
100
AcDbCircle
 10
28.38458348854653
 20
-38.49373749001238
 30
0.0
 40
0.511352622321557
  0
MTEXT
  5
AE66D
330
1F
100
AcDbEntity
  8
HI Text
100
AcDbMText
 10
28.48285217736953
 20
-39.48897462761984
 30
0.0
 40
0.5
 41
0.5059889325313582
 46
0.0
 71
     6
 72
     1
  1
{\fArial|b0|i0|c0|p34;3}
  7
Hunter
 73
     1
 44
1.0
  0
CIRCLE
  5
AE66E
330
1F
100
AcDbEntity
  8
HI Text
100
AcDbCircle
 10
28.39987382958799
 20
-39.51932812927412
 30
0.0
 40
0.511352622321557
  0
LEADER
  5
AE66F
330
1F
100
AcDbEntity
  8
HI Text
100
AcDbLeader
  3
LandMatters
 76
     3
 10
18.70367063326205
 20
-39.17334240429483
 30
0.0
 10
27.26660130515871
 20
-39.51932812927408
 30
0.0
 10
27.88852120726643
 20
-39.51932812927412
 30
0.0
211
-0.0000000000000002
221
-1.0
231
0.0
1001
ACAD
1000
DSTYLE
1002
{
1070
    41
1040
0.5
1002
}
  0
VIEWPORT
  5
A21C6
102
{ACAD_XDICTIONARY
360
A21C7
102
}
330
A21B8
100
AcDbEntity
 67
     1
  8
0
100
AcDbViewport
 10
3.905757881524996
 20
5.145915324293722
 30
0.0
 40
25.59228047282287
 41
12.37110236220472
 68
     1
 69
     1
 12
3.905757881524996
 22
5.145915324293722
 13
0.0
 23
0.0
 14
0.5
 24
0.5
 15
0.5
 25
0.5
 16
0.0
 26
0.0
 36
1.0
 17
0.0
 27
0.0
 37
0.0
 42
50.0
 43
0.0
 44
0.0
 45
12.37110236220472
 50
0.0
 51
0.0
 72
  1000
 90
   819232
  1

281
     0
 71
     1
 74
     0
110
0.0
120
0.0
130
0.0
111
1.0
121
0.0
131
0.0
112
0.0
122
1.0
132
0.0
 79
     0
146
0.0
170
     0
 61
     5
348
9F
292
     1
282
     1
141
0.0
142
0.0
 63
   250
421
  3355443
  0
VIEWPORT
  5
A21CA
102
{ACAD_XDICTIONARY
360
A21CB
102
}
330
A21B8
100
AcDbEntity
 67
     1
  8
HI No Print
100
AcDbViewport
 10
3.902431174260534
 20
5.135389992527702
 30
0.0
 40
7.774310452884648
 41
10.2436982612396
 68
     2
 69
     2
 12
24.62819913761723
 22
-33.76464869093137
 13
0.0
 23
0.0
 14
0.5
 24
0.5
 15
0.5
 25
0.5
 16
0.0
 26
0.0
 36
1.0
 17
0.0
 27
0.0
 37
0.0
 42
50.0
 43
0.0
 44
0.0
 45
45.52685363978641
 50
0.0
 51
0.0
 72
  1000
 90
   557664
  1

281
     0
 71
     1
 74
     0
110
0.0
120
0.0
130
0.0
111
1.0
121
0.0
131
0.0
112
0.0
122
1.0
132
0.0
 79
     0
146
0.0
170
     0
 61
     5
348
9F
292
     1
282
     1
141
0.0
142
0.0
 63
   250
421
  3355443
  0
ENDSEC
  0
SECTION
  2
OBJECTS
  0
DICTIONARY
  5
C
330
0
100
AcDbDictionary
281
     1
  3
ACAD_CIP_PREVIOUS_PRODUCT_INFO
350
5C44A
  3
ACAD_COLOR
350
73
  3
ACAD_DETAILVIEWSTYLE
350
5C43F
  3
ACAD_GROUP
350
D
  3
ACAD_IMAGE_DICT
350
620BA
  3
ACAD_IMAGE_VARS
350
9DA
  3
ACAD_LAYOUT
350
1A
  3
ACAD_MATERIAL
350
72
  3
ACAD_MLEADERSTYLE
350
A33
  3
ACAD_MLINESTYLE
350
17
  3
ACAD_PLOTSETTINGS
350
19
  3
ACAD_PLOTSTYLENAME
350
E
  3
ACAD_RENDER_ACTIVE_RAPIDRT_SETTINGS
350
A0A35
  3
ACAD_RENDER_ACTIVE_SETTINGS
350
A15E5
  3
ACAD_SCALELIST
350
A11
  3
ACAD_SECTIONVIEWSTYLE
350
5C43D
  3
ACAD_TABLESTYLE
350
86
  3
ACAD_VISUALSTYLE
350
99
  3
ACAD_WIPEOUT_VARS
350
14083
  3
AcadDim
350
45186
  3
AcadDim_CRX
350
95AB0
  3
AcAec
350
5C6BE
  3
ACDB_RECOMPOSE_DATA
350
AE6F1
  3
AcDbVariableDictionary
350
66
  3
AEC_CLASSIFICATION_SYSTEM_DEFS
350
F6
  3
AEC_CLEANUP_GROUP_DEFS
350
5C691
  3
AEC_DISP_REP_CONFIGURATIONS
350
5C68F
  3
AEC_DISP_REP_SETS
350
5C686
  3
AEC_DISP_REPS
350
5C560
  3
AEC_DISPLAY_PROPS_DEFAULTS
350
5C562
  3
AEC_LAYERKEY_STYLES
350
5C693
  3
AEC_PROPERTY_SET_DEFS
350
F7
  3
AEC_VARS
350
5C565
  0
DICTIONARY
  5
B51
330
8
100
AcDbDictionary
280
     1
281
     1
  0
DICTIONARY
  5
E7
330
2
100
AcDbDictionary
280
     1
281
     1
  3
ACAD_LAYERFILTERS
360
1DD06
  3
ACAD_LAYERSTATES
360
E8
  3
ACLYDICTIONARY
360
1DD05
  0
DICTIONARY
  5
A6C
330
10
100
AcDbDictionary
280
     1
281
     1
  3
ADSK_XREC_LAYER_RECONCILED
360
A6D
  0
DICTIONARY
  5
9EC2C
330
9EC2B
100
AcDbDictionary
280
     1
281
     1
  0
DICTIONARY
  5
AE1AF
330
AE1AE
100
AcDbDictionary
280
     1
281
     1
  0
DICTIONARY
  5
A62
330
1F
100
AcDbDictionary
280
     1
281
     1
  3
ACAD_SORTENTS
360
A63
  0
DICTIONARY
  5
A21AF
330
A21AE
100
AcDbDictionary
280
     1
281
     1
  3
ASDK_XREC_ANNOTATION_SCALE_INFO
360
A21B0
  0
DICTIONARY
  5
A21B3
330
A21B2
100
AcDbDictionary
280
     1
281
     1
  3
ASDK_XREC_ANNOTATION_SCALE_INFO
360
A21B4
  0
DICTIONARY
  5
A09BD
330
A06C6
100
AcDbDictionary
280
     1
281
     1
  3
ACAD_MTEXT_2008_RT
360
AE6F0
  0
DICTIONARY
  5
A2288
330
A2287
100
AcDbDictionary
280
     1
281
     1
  0
DICTIONARY
  5
A21C7
330
A21C6
100
AcDbDictionary
280
     1
281
     1
  3
ASDK_XREC_ANNOTATION_SCALE_INFO
360
A21C8
  0
DICTIONARY
  5
A21CB
330
A21CA
100
AcDbDictionary
280
     1
281
     1
  3
ASDK_XREC_ANNOTATION_SCALE_INFO
360
A21CC
  0
XRECORD
  5
5C44A
102
{ACAD_REACTORS
330
C
102
}
330
C
100
AcDbXrecord
280
     1
300
ACD
300
2015
300
ACD_F_S
  0
DICTIONARY
  5
73
102
{ACAD_REACTORS
330
C
102
}
330
C
100
AcDbDictionary
281
     1
  0
DICTIONARY
  5
5C43F
102
{ACAD_REACTORS
330
C
102
}
330
C
100
AcDbDictionary
281
     1
  3
Imperial24
350
5C440
  0
DICTIONARY
  5
D
102
{ACAD_REACTORS
330
C
102
}
330
C
100
AcDbDictionary
281
     1
  3
*A1
350
AE640
  3
*A2
350
AE641
  3
*A3
350
AE642
  0
DICTIONARY
  5
620BA
102
{ACAD_REACTORS
330
C
102
}
330
C
100
AcDbDictionary
281
     1
  0
RASTERVARIABLES
  5
9DA
102
{ACAD_REACTORS
330
C
102
}
330
C
100
AcDbRasterVariables
 90
        0
 70
     1
 71
     1
 72
     5
  0
DICTIONARY
  5
1A
102
{ACAD_REACTORS
330
C
102
}
330
C
100
AcDbDictionary
281
     1
  3
8.5 X 11
350
A21A1
  3
A4
350
A21B9
  3
Model
350
22
  0
DICTIONARY
  5
72
102
{ACAD_REACTORS
330
C
102
}
330
C
100
AcDbDictionary
281
     1
  3
ByBlock
350
97
  3
ByLayer
350
96
  3
Global
350
98
  0
DICTIONARY
  5
A33
102
{ACAD_REACTORS
330
C
102
}
330
C
100
AcDbDictionary
281
     1
  3
Standard
350
A34
  0
DICTIONARY
  5
17
102
{ACAD_REACTORS
330
C
102
}
330
C
100
AcDbDictionary
281
     1
  3
Standard
350
18
  0
DICTIONARY
  5
19
102
{ACAD_REACTORS
330
C
102
}
330
C
100
AcDbDictionary
281
     1
  3
500 - 24x36
350
E0
  3
500 - 30x42 Landscape
350
DE
  3
500 - 30x42 Portrait
350
DF
  3
6200 8.5x11
350
1052
  3
9800 - 11x17 Reduced
350
E1
  3
K550 - 8x11 Reduced
350
E2
  0
ACDBDICTIONARYWDFLT
  5
E
102
{ACAD_REACTORS
330
C
102
}
330
C
100
AcDbDictionary
281
     1
  3
Normal
350
F
100
AcDbDictionaryWithDefault
340
F
  0
ACAD_PROXY_OBJECT
  5
A0A35
102
{ACAD_REACTORS
330
C
102
}
330
C
100
AcDbProxyObject
 90
      499
 91
      769
 95
  3276827
 70
     0
162
               534
311
419340194019001A401D401B4024690401C001C001B001A4019401CC008000D4008001C8019401B80190019401C801A401B8019C008001B0019401D8019401B001CC00
161
               201
310
40AE40E4150140502000000000000021000000000000000840CC
 94
        0
  0
MENTALRAYRENDERSETTINGS
  5
A15E5
102
{ACAD_XDICTIONARY
360
A15E6
102
}
102
{ACAD_REACTORS
330
C
102
}
330
C
100
AcDbRenderSettings
 90
        2
  1
Medium
290
     1
290
     1
290
     1
290
     1
  1

  1

 90
        0
100
AcDbMentalRayRenderSettings
 90
        2
 90
        0
 90
        1
 70
     2
 40
3.0
 40
3.0
 40
0.0500000007450581
 40
0.0500000007450581
 40
0.0500000007450581
 40
0.0500000007450581
 70
     0
290
     0
290
     1
 90
        5
 90
        5
 90
        5
290
     0
 90
      500
290
     0
 40
1.0
 90
    10000
 90
        5
 90
        5
 90
        5
290
     0
 90
      200
290
     0
290
     0
290
     0
 40
1.0
 40
1.0
 40
1500.0
 70
     0
 70
     0
 40
10.0
 70
     0
 70
     0
290
     0
  1

 90
       32
 70
     0
 90
     1048
290
     0
 40
1.0
  0
DICTIONARY
  5
A11
102
{ACAD_REACTORS
330
C
102
}
330
C
100
AcDbDictionary
281
     1
  3
*A1
350
4D48B
  3
*A2
350
4D48C
  3
*A3
350
5C55A
  3
*A4
350
5C55B
  3
A0
350
A12
  3
A1
350
1DC91
  3
A2
350
1DC92
  3
A3
350
1DC93
  3
A4
350
1DC94
  3
A5
350
1DC95
  3
A6
350
1DC96
  3
A7
350
1DC97
  3
A8
350
1DC98
  3
A9
350
1DC99
  3
B0
350
1DC9A
  3
B1
350
1DC9B
  3
B2
350
1DC9C
  3
B3
350
1DC9D
  3
B4
350
1DC9E
  3
B5
350
1DC9F
  3
B6
350
1DCA0
  3
B7
350
1DCA1
  3
B8
350
1DCA2
  3
B9
350
1DCA3
  3
C0
350
1DCA4
  3
C1
350
1DCA5
  3
C2
350
1DCA6
  3
C3
350
1DCA7
  3
C4
350
1DCA8
  3
C5
350
1DCA9
  3
C6
350
1DCAA
  3
C7
350
1DCAB
  3
C8
350
1DCAC
  3
C9
350
1DCAD
  3
D0
350
1DCAE
  3
D1
350
1DCAF
  3
D2
350
1DCB0
  0
DICTIONARY
  5
5C43D
102
{ACAD_REACTORS
330
C
102
}
330
C
100
AcDbDictionary
281
     1
  3
Imperial24
350
5C43E
  0
DICTIONARY
  5
86
102
{ACAD_REACTORS
330
C
102
}
330
C
100
AcDbDictionary
281
     1
  3
Standard
350
87
  0
DICTIONARY
  5
99
102
{ACAD_REACTORS
330
C
102
}
330
C
100
AcDbDictionary
281
     1
  3
2dWireframe
350
9F
  3
3D Hidden
350
A1
  3
3dWireframe
350
A0
  3
Basic
350
9E
  3
Brighten
350
A5
  3
ColorChange
350
A9
  3
Conceptual
350
A2
  3
Dim
350
A4
  3
EdgeColorOff
350
5C43C
  3
Facepattern
350
A8
  3
Flat
350
9A
  3
FlatWithEdges
350
9B
  3
Gouraud
350
9C
  3
GouraudWithEdges
350
9D
  3
Hidden
350
5C434
  3
JitterOff
350
5C43A
  3
Linepattern
350
A7
  3
OverhangOff
350
5C43B
  3
Realistic
350
A3
  3
Shaded
350
5C439
  3
Shaded with edges
350
5C438
  3
Shades of Gray
350
5C435
  3
Sketchy
350
5C436
  3
Thicken
350
A6
  3
Wireframe
350
5C433
  3
X-Ray
350
5C437
  0
WIPEOUTVARIABLES
  5
14083
102
{ACAD_REACTORS
330
C
102
}
330
C
100
AcDbWipeoutVariables
 70
     1
  0
XRECORD
  5
45186
102
{ACAD_REACTORS
330
C
102
}
330
C
100
AcDbXrecord
280
     1
 90
   990106
  3

 60
     0
 61
     0
 62
     1
 63
     3
 64
     0
 65
     0
 66
     0
 67
     3
 68
     1
 69
     0
 70
     0
 71
     0
 72
     0
 40
0.0
170
     0
  0
XRECORD
  5
95AB0
102
{ACAD_REACTORS
330
C
102
}
330
C
100
AcDbXrecord
280
     1
 90
   990106
  3

 60
     0
 61
     0
 62
     1
 63
     3
 64
     0
 65
     0
 66
     0
 67
     3
 68
     1
 69
     0
 70
     0
 71
     0
 72
     0
 40
0.0
170
     0
  0
DICTIONARY
  5
5C6BE
102
{ACAD_REACTORS
330
C
102
}
330
C
100
AcDbDictionary
281
     1
  3
AcAecLayerManager
350
5C6BF
  0
XRECORD
  5
AE6F1
102
{ACAD_REACTORS
330
C
102
}
330
C
100
AcDbXrecord
280
     1
 90
        1
330
87
330
5C43E
330
5C440
330
A06C6
  0
DICTIONARY
  5
66
102
{ACAD_REACTORS
330
C
102
}
330
C
100
AcDbDictionary
281
     1
  3
CANNOSCALE
350
B5D
  3
CMLEADERSTYLE
350
B5C
  3
CTABLESTYLE
350
89
  3
CVIEWDETAILSTYLE
350
66F55
  3
CVIEWSECTIONSTYLE
350
66F56
  3
DIMASSOC
350
67
  3
HIDETEXT
350
6B
  3
HPCOLOR
350
9D9A7
  3
HPTRANSPARENCY
350
9D9A6
  3
LAYEREVAL
350
25751
  3
LAYERNOTIFY
350
25752
  3
LIGHTINGUNITS
350
F79
  3
MSLTSCALE
350
F78
  0
DICTIONARY
  5
F6
102
{ACAD_REACTORS
330
C
102
}
330
C
100
AcDbDictionary
281
     1
  0
DICTIONARY
  5
5C691
102
{ACAD_REACTORS
330
C
102
}
330
C
100
AcDbDictionary
281
     1
  3
Standard
350
5C692
  0
DICTIONARY
  5
5C68F
102
{ACAD_REACTORS
330
C
102
}
330
C
100
AcDbDictionary
281
     1
  3
Medium Detail
350
5C6A8
  3
Standard
350
5C690
  0
DICTIONARY
  5
5C686
102
{ACAD_REACTORS
330
C
102
}
330
C
100
AcDbDictionary
281
     1
  3
Elevation
350
5C68A
  3
Model
350
5C687
  3
Model High Detail
350
5C68E
  3
Model Low Detail
350
5C68D
  3
Plan
350
5C688
  3
Plan Diagnostic
350
5C6AB
  3
Plan High Detail
350
5C68C
  3
Plan Low Detail
350
5C68B
  3
Reflected
350
5C689
  3
Section_Elev
350
5C6AE
  0
DICTIONARY
  5
5C560
102
{ACAD_REACTORS
330
C
102
}
330
C
100
AcDbDictionary
281
     1
  3
AecDbDispRep2dSection
350
5C564
  3
AecDbDispRepAnchor
350
5C568
  3
AecDbDispRepAnchorBubToGrid
350
5C604
  3
AecDbDispRepAnchorBubToGridMdl
350
5C621
  3
AecDbDispRepAnchorBubToGridRcp
350
5C608
  3
AecDbDispRepAnchorEntToNode
350
5C569
  3
AecDbDispRepAnchorExtendedTagToEnt
350
5C56B
  3
AecDbDispRepAnchorTagToEnt
350
5C561
  3
AecDbDispRepBdgElevLineModel
350
5C61D
  3
AecDbDispRepBdgElevLinePlan
350
5C5B4
  3
AecDbDispRepBdgElevLinePlan100
350
5C5B8
  3
AecDbDispRepBdgElevLinePlan50
350
5C5F6
  3
AecDbDispRepBdgElevLineRcp
350
5C60E
  3
AecDbDispRepBdgSectionLineModel
350
5C615
  3
AecDbDispRepBdgSectionLinePlan
350
5C5C6
  3
AecDbDispRepBdgSectionLinePlan100
350
5C5BA
  3
AecDbDispRepBdgSectionLinePlan50
350
5C5E9
  3
AecDbDispRepBdgSectionLineRcp
350
5C61B
  3
AecDbDispRepBdgSectionModel
350
5C610
  3
AecDbDispRepBdgSectionSubDiv
350
5C611
  3
AecDbDispRepCeilingGrid
350
5C5BE
  3
AecDbDispRepCeilingGridModel
350
5C613
  3
AecDbDispRepCeilingGridPlan100
350
5C5B6
  3
AecDbDispRepCeilingGridPlan50
350
5C5F0
  3
AecDbDispRepCeilingGridRcp
350
5C606
  3
AecDbDispRepClipVolModel
350
5C56D
  3
AecDbDispRepClipVolPlan
350
5C573
  3
AecDbDispRepClipVolResSubDiv
350
5C579
  3
AecDbDispRepClipVolResult
350
5C580
  3
AecDbDispRepColumnGrid
350
5C5C8
  3
AecDbDispRepColumnGridModel
350
5C617
  3
AecDbDispRepColumnGridPlan100
350
5C5C0
  3
AecDbDispRepColumnGridPlan50
350
5C5E7
  3
AecDbDispRepColumnGridRcp
350
5C619
  3
AecDbDispRepCurtainWallLayoutModel
350
5C61F
  3
AecDbDispRepCurtainWallLayoutPlan
350
5C5BC
  3
AecDbDispRepCurtainWallLayoutPlan100
350
5C5CA
  3
AecDbDispRepCurtainWallLayoutPlan50
350
5C5F8
  3
AecDbDispRepCurtainWallUnitModel
350
5C60A
  3
AecDbDispRepCurtainWallUnitPlan
350
5C5C2
  3
AecDbDispRepCurtainWallUnitPlan100
350
5C5C4
  3
AecDbDispRepCurtainWallUnitPlan50
350
5C5E5
  3
AecDbDispRepDimGroupPlan
350
5C645
  3
AecDbDispRepDimGroupPlan100
350
5C60C
  3
AecDbDispRepDimGroupPlan50
350
5C62B
  3
AecDbDispRepDisplayTheme
350
5C588
  3
AecDbDispRepDoorElev
350
5C635
  3
AecDbDispRepDoorModel
350
5C62D
  3
AecDbDispRepDoorNominal
350
5C639
  3
AecDbDispRepDoorPlan
350
5C63F
  3
AecDbDispRepDoorPlan50
350
5C62F
  3
AecDbDispRepDoorPlanHekto
350
5C625
  3
AecDbDispRepDoorRcp
350
5C641
  3
AecDbDispRepDoorThresholdPlan
350
5C631
  3
AecDbDispRepDoorThresholdSymbolPlan
350
5C623
  3
AecDbDispRepEditInPlaceProfile
350
5C571
  3
AecDbDispRepEntRef
350
5C575
  3
AecDbDispRepLayoutCurve
350
5C577
  3
AecDbDispRepLayoutGrid2d
350
5C56F
  3
AecDbDispRepLayoutGrid3d
350
5C57B
  3
AecDbDispRepMaskBlockRef
350
5C57E
  3
AecDbDispRepMaskBlockRefRcp
350
5C633
  3
AecDbDispRepMassElemModel
350
5C592
  3
AecDbDispRepMassElemPlan100
350
5C63B
  3
AecDbDispRepMassElemPlan50
350
5C637
  3
AecDbDispRepMassElemRcp
350
5C63D
  3
AecDbDispRepMassElemSchem
350
5C58C
  3
AecDbDispRepMassGroupModel
350
5C590
  3
AecDbDispRepMassGroupPlan
350
5C58E
  3
AecDbDispRepMassGroupPlan100
350
5C643
  3
AecDbDispRepMassGroupPlan50
350
5C627
  3
AecDbDispRepMassGroupRcp
350
5C629
  3
AecDbDispRepMaterial
350
5C586
  3
AecDbDispRepMaterial$General Medium Detail
350
5C6B1
  3
AecDbDispRepMvBlockRef
350
5C581
  3
AecDbDispRepMvBlockRef$Plan
350
5C6B4
  3
AecDbDispRepMvBlockRefModel
350
5C57D
  3
AecDbDispRepMvBlockRefPlan100
350
5C5CC
  3
AecDbDispRepMvBlockRefPlan50
350
5C5EB
  3
AecDbDispRepMvBlockRefRcp
350
5C64F
  3
AecDbDispRepOpening
350
5C64D
  3
AecDbDispRepOpeningModel
350
5C647
  3
AecDbDispRepOpeningPlan100
350
5C650
  3
AecDbDispRepOpeningPlan50
350
5C649
  3
AecDbDispRepOpeningPlanReflected
350
5C64B
  3
AecDbDispRepOpeningSillPlan
350
5C652
  3
AecDbDispRepPolygonModel
350
5C582
  3
AecDbDispRepPolygonTrueColour
350
5C584
  3
AecDbDispRepRailingModel
350
5C65E
  3
AecDbDispRepRailingPlan
350
5C654
  3
AecDbDispRepRailingPlan100
350
5C65A
  3
AecDbDispRepRailingPlan50
350
5C65C
  3
AecDbDispRepRoofModel
350
5C656
  3
AecDbDispRepRoofPlan
350
5C5CF
  3
AecDbDispRepRoofPlan100
350
5C5DF
  3
AecDbDispRepRoofPlan50
350
5C5F2
  3
AecDbDispRepRoofRcp
350
5C658
  3
AecDbDispRepRoofSlabModel
350
5C668
  3
AecDbDispRepRoofSlabPlan
350
5C5CD
  3
AecDbDispRepRoofSlabPlan100
350
5C5D5
  3
AecDbDispRepRoofSlabPlan50
350
5C5FA
  3
AecDbDispRepScheduleTable
350
5C684
  3
AecDbDispRepSlabModel
350
5C672
  3
AecDbDispRepSlabPlan
350
5C5DB
  3
AecDbDispRepSlabPlan100
350
5C5D1
  3
AecDbDispRepSlabPlan50
350
5C5F4
  3
AecDbDispRepSlice
350
5C58A
  3
AecDbDispRepSpaceDecomposed
350
5C666
  3
AecDbDispRepSpaceModel
350
5C66C
  3
AecDbDispRepSpacePlan
350
5C5D3
  3
AecDbDispRepSpacePlan100
350
5C5D7
  3
AecDbDispRepSpacePlan50
350
5C5FE
  3
AecDbDispRepSpaceRcp
350
5C664
  3
AecDbDispRepSpaceVolume
350
5C66E
  3
AecDbDispRepStairModel
350
5C660
  3
AecDbDispRepStairPlan
350
5C662
  3
AecDbDispRepStairPlan100
350
5C66A
  3
AecDbDispRepStairPlan50
350
5C670
  3
AecDbDispRepStairPlanOverlapping
350
5C5A6
  3
AecDbDispRepStairRcp
350
5C5A4
  3
AecDbDispRepWallGraph
350
5C5AA
  3
AecDbDispRepWallModel
350
5C596
  3
AecDbDispRepWallPlan
350
5C5DD
  3
AecDbDispRepWallPlan100
350
5C5D9
  3
AecDbDispRepWallPlan50
350
5C5FC
  3
AecDbDispRepWallRcp
350
5C59A
  3
AecDbDispRepWallSchem
350
5C5AC
  3
AecDbDispRepWindowAssemblyModel
350
5C5AE
  3
AecDbDispRepWindowAssemblyPlan
350
5C5EC
  3
AecDbDispRepWindowAssemblyPlan100
350
5C5EE
  3
AecDbDispRepWindowAssemblyPlan50
350
5C602
  3
AecDbDispRepWindowAssemblySillPlan
350
5C5A8
  3
AecDbDispRepWindowElev
350
5C594
  3
AecDbDispRepWindowModel
350
5C5A2
  3
AecDbDispRepWindowNominal
350
5C5B2
  3
AecDbDispRepWindowPlan
350
5C59C
  3
AecDbDispRepWindowPlan100
350
5C59E
  3
AecDbDispRepWindowPlan50
350
5C598
  3
AecDbDispRepWindowRcp
350
5C5B0
  3
AecDbDispRepWindowSillPlan
350
5C5A0
  3
AecDbDispRepZone
350
5C5E3
  3
AecDbDispRepZonePlan100
350
5C5E1
  3
AecDbDispRepZonePlan50
350
5C600
  3
AecsDbDispRepMemberElevationDesign
350
5C67C
  3
AecsDbDispRepMemberElevationDetail
350
5C678
  3
AecsDbDispRepMemberLogical
350
5C676
  3
AecsDbDispRepMemberModelDesign
350
5C67A
  3
AecsDbDispRepMemberModelDetail
350
5C674
  3
AecsDbDispRepMemberPlanDesign
350
5C67E
  3
AecsDbDispRepMemberPlanDetail
350
5C680
  3
AecsDbDispRepMemberPlanSketch
350
5C682
  0
DICTIONARY
  5
5C562
102
{ACAD_REACTORS
330
C
102
}
330
C
100
AcDbDictionary
281
     1
  3
*A1
350
5C563
  3
*A10
350
5C5D0
  3
*A100
350
5C57C
  3
*A101
350
5C65B
  3
*A102
350
5C65D
  3
*A103
350
5C640
  3
*A104
350
5C5C7
  3
*A105
350
5C663
  3
*A106
350
5C632
  3
*A107
350
5C589
  3
*A108
350
5C671
  3
*A109
350
5C669
  3
*A11
350
5C5B1
  3
*A110
350
5C66B
  3
*A111
350
5C64A
  3
*A112
350
5C59F
  3
*A113
350
5C5D4
  3
*A114
350
5C66F
  3
*A115
350
5C655
  3
*A116
350
5C673
  3
*A117
350
5C612
  3
*A118
350
5C634
  3
*A119
350
5C5E6
  3
*A12
350
5C5A7
  3
*A120
350
5C679
  3
*A121
350
5C5EA
  3
*A122
350
5C665
  3
*A123
350
5C5DE
  3
*A124
350
5C67F
  3
*A125
350
5C5AD
  3
*A126
350
5C585
  3
*A127
350
5C683
  3
*A128
350
5C66D
  3
*A129
350
5C5BD
  3
*A13
350
5C5FD
  3
*A130
350
5C636
  3
*A131
350
5C675
  3
*A132
350
5C5ED
  3
*A133
350
5C646
  3
*A134
350
5C609
  3
*A135
350
5C58B
  3
*A136
350
5C681
  3
*A137
350
5C605
  3
*A138
350
5C58F
  3
*A139
350
5C642
  3
*A14
350
5C5A9
  3
*A140
350
5C593
  3
*A141
350
5C6B7
  3
*A142
350
5C5D6
  3
*A15
350
5C587
  3
*A16
350
5C5E8
  3
*A17
350
5C624
  3
*A18
350
5C5AF
  3
*A19
350
5C591
  3
*A2
350
5C620
  3
*A20
350
5C5B3
  3
*A21
350
5C667
  3
*A22
350
5C56C
  3
*A23
350
5C638
  3
*A24
350
5C5F3
  3
*A25
350
5C5B9
  3
*A26
350
5C63C
  3
*A27
350
5C5A3
  3
*A28
350
5C62E
  3
*A29
350
5C5BF
  3
*A3
350
5C597
  3
*A30
350
5C5F9
  3
*A31
350
5C5CB
  3
*A32
350
5C5C5
  3
*A33
350
5C5AB
  3
*A34
350
5C60B
  3
*A35
350
5C651
  3
*A36
350
5C56E
  3
*A37
350
5C5B5
  3
*A38
350
5C63E
  3
*A39
350
5C583
  3
*A4
350
5C599
  3
*A40
350
5C65F
  3
*A41
350
5C5D2
  3
*A42
350
5C5C1
  3
*A43
350
5C659
  3
*A44
350
5C5D8
  3
*A45
350
5C57A
  3
*A46
350
5C5F5
  3
*A47
350
5C5DC
  3
*A48
350
5C5C9
  3
*A49
350
5C626
  3
*A5
350
5C59B
  3
*A50
350
5C5CE
  3
*A51
350
5C63A
  3
*A52
350
5C67B
  3
*A53
350
5C5FB
  3
*A54
350
5C5DA
  3
*A55
350
5C677
  3
*A56
350
5C5FF
  3
*A57
350
5C5A5
  3
*A58
350
5C603
  3
*A59
350
5C570
  3
*A6
350
5C578
  3
*A60
350
5C644
  3
*A61
350
5C607
  3
*A62
350
5C574
  3
*A63
350
5C5EF
  3
*A64
350
5C685
  3
*A65
350
5C60D
  3
*A66
350
5C5E0
  3
*A67
350
5C64C
  3
*A68
350
5C61C
  3
*A69
350
5C614
  3
*A7
350
5C616
  3
*A70
350
5C5F7
  3
*A71
350
5C661
  3
*A72
350
5C58D
  3
*A73
350
5C61A
  3
*A74
350
5C601
  3
*A75
350
5C576
  3
*A76
350
5C5C3
  3
*A77
350
5C5E2
  3
*A78
350
5C59D
  3
*A79
350
5C622
  3
*A8
350
5C5A1
  3
*A80
350
5C60F
  3
*A81
350
5C595
  3
*A82
350
5C628
  3
*A83
350
5C57F
  3
*A84
350
5C648
  3
*A85
350
5C62C
  3
*A86
350
5C618
  3
*A87
350
5C67D
  3
*A88
350
5C5E4
  3
*A89
350
5C61E
  3
*A9
350
5C56A
  3
*A90
350
5C572
  3
*A91
350
5C5BB
  3
*A92
350
5C64E
  3
*A93
350
5C62A
  3
*A94
350
5C5B7
  3
*A95
350
5C653
  3
*A96
350
5C5F1
  3
*A97
350
5C657
  3
*A98
350
5C630
  3
*A99
350
5C567
  0
DICTIONARY
  5
5C693
102
{ACAD_REACTORS
330
C
102
}
330
C
100
AcDbDictionary
281
     1
  3
AIA (256 Color)
350
5C6B8
  0
DICTIONARY
  5
F7
102
{ACAD_REACTORS
330
C
102
}
330
C
100
AcDbDictionary
281
     1
  0
DICTIONARY
  5
5C565
102
{ACAD_REACTORS
330
C
102
}
330
C
100
AcDbDictionary
281
     1
  3
AEC_VARS_ARCHBASE
350
5C6BB
  3
AEC_VARS_DWG_SETUP
350
5C566
  3
AEC_VARS_STRUCTUREBASE
350
5C6BC
  3
AECMX_VARS_MUNICH
350
5C6BD
  0
DICTIONARY
  5
1DD06
102
{ACAD_REACTORS
330
E7
102
}
330
E7
100
AcDbDictionary
281
     1
  0
DICTIONARY
  5
E8
102
{ACAD_REACTORS
330
E7
102
}
330
E7
100
AcDbDictionary
281
     1
  0
DICTIONARY
  5
1DD05
102
{ACAD_REACTORS
330
E7
102
}
330
E7
100
AcDbDictionary
281
     1
1001
ACAD
1000
<All
  0
XRECORD
  5
A6D
102
{ACAD_REACTORS
330
A6C
102
}
330
A6C
100
AcDbXrecord
280
     1
290
     1
  0
SORTENTSTABLE
  5
A63
102
{ACAD_REACTORS
330
A62
102
}
330
A62
100
AcDbSortentsTable
330
1F
331
AE3CE
  5
AE210
331
AE207
  5
AE203
331
ABD15
  5
ABD30
331
A06C0
  5
A5E5F
331
ADE1B
  5
AE3C8
331
AE1F8
  5
AE038
331
AE202
  5
AE1FE
331
AE1F3
  5
ADFFB
331
ADE16
  5
AE29D
331
ABD30
  5
AC702
331
AE3E9
  5
AE1FA
331
AE213
  5
AE211
331
ABD19
  5
ABD40
331
A06C4
  5
A5E65
331
AE1FC
  5
AE14B
331
A06BB
  5
A5E58
331
AE206
  5
AE202
331
ABD14
  5
ABD2F
331
AE0D0
  5
A5E59
331
ADE1A
  5
AE3C7
331
A06BF
  5
A5E5D
331
AE201
  5
AE1FD
331
ABD2F
  5
AC701
331
AE3D1
  5
AE212
331
AE212
  5
AE20E
331
ABD18
  5
ABD33
331
AE1FB
  5
AE14A
331
A06BA
  5
A5E56
331
ADE1E
  5
AE3CB
331
A06C3
  5
A5E63
331
AE205
  5
AE201
331
ABD13
  5
ABD26
331
A06BE
  5
A5E5C
331
AE216
  5
AE216
331
ABD1C
  5
ABD42
331
AE1FF
  5
AE1F7
331
A06C7
  5
ABD21
331
ADE19
  5
AE368
331
A06C8
  5
ABD24
331
ABD17
  5
ABD32
331
A06B9
  5
A5E57
331
AE200
  5
AE1FC
331
AE211
  5
AE20D
331
AE1FA
  5
AE0D0
331
A06C2
  5
A5E62
331
ADE1D
  5
AE3CA
331
AE3D0
  5
AE20F
331
AE3DA
  5
AE3F0
331
AE204
  5
AE200
331
A06BD
  5
A5E5B
331
ABD1B
  5
ABD41
331
ADE18
  5
AE35F
331
AE215
  5
AE215
331
AE1FE
  5
AE1F6
331
A06C6
  5
A5E67
331
A2287
  5
ABD25
331
AE3D4
  5
AE1F9
331
AE1F5
  5
ADFFE
331
A06B8
  5
A5E55
331
AE3CF
  5
AE213
331
ABD16
  5
ABD31
331
A06C1
  5
A5E60
331
ADE1C
  5
AE3C9
331
AE1F9
  5
AE0CF
331
A06BC
  5
A5E5A
331
ADE17
  5
AE29E
331
AE3EA
  5
AE1FB
331
AE203
  5
AE1FF
331
AE3D3
  5
AE1F8
331
AE1FD
  5
AE1F5
331
A06C5
  5
A5E66
331
AE214
  5
AE214
  0
XRECORD
  5
A21B0
102
{ACAD_REACTORS
330
A21AF
102
}
330
A21AF
100
AcDbXrecord
280
     1
 90
        1
340
1DCB0
  0
XRECORD
  5
A21B4
102
{ACAD_REACTORS
330
A21B3
102
}
330
A21B3
100
AcDbXrecord
280
     1
 90
        1
340
A12
  0
XRECORD
  5
AE6F0
102
{ACAD_REACTORS
330
A09BD
102
}
330
A09BD
100
AcDbXrecord
280
     1
 40
102271.0
  1
\pxql;{\fArial|b0|i0|c0|p34;INSERT FITTINGS - PVC TO POLY}
  0
XRECORD
  5
A21C8
102
{ACAD_REACTORS
330
A21C7
102
}
330
A21C7
100
AcDbXrecord
280
     1
 90
        1
340
1DCB0
  0
XRECORD
  5
A21CC
102
{ACAD_REACTORS
330
A21CB
102
}
330
A21CB
100
AcDbXrecord
280
     1
 90
        1
340
A12
  0
ACDBDETAILVIEWSTYLE
  5
5C440
102
{ACAD_XDICTIONARY
360
A21DF
102
}
102
{ACAD_REACTORS
330
5C43F
102
}
330
5C43F
100
AcDbModelDocViewStyle
 70
     0
  3
Imperial24
290
     0
100
AcDbDetailViewStyle
 70
     0
 71
     0
 90
        3
 71
     1
340
11
 62
   256
 40
0.24
340
0
 62
   256
 40
0.24
300

 40
0.36
280
     3
 71
     2
340
16
 90
       25
 62
   256
 71
     3
340
11
 62
   256
 40
0.24
 90
        1
 40
0.75
 90
        1
300
%<\AcVar ViewType \f "%tc1">% %<\AcVar ViewDetailId>%\PSCALE %<\AcVar ViewScale \f "%sn">%
 71
     4
340
16
 90
       25
 62
   256
340
16
 90
       25
 62
   256
280
     0
  0
GROUP
  5
AE640
102
{ACAD_REACTORS
330
D
102
}
330
D
100
AcDbGroup
300

 70
     1
 71
     1
340
AE60F
340
AE60E
340
AE60D
340
AE60C
340
AE4D4
340
AE4D3
340
AE4D2
340
AE4C5
340
AE4C4
340
AE4C3
340
AE4C2
340
AE4C1
340
AE4C0
340
AE4BF
340
AE4BE
340
AE4BD
340
AE4BC
340
AE4BB
340
AE4BA
340
AE4B9
340
AE4B8
340
AE4B7
340
AE4B6
340
AE4B5
340
AE4B4
340
AE4B3
340
AE4B2
340
AE4B1
340
AE4B0
340
AE4AF
340
AE4AE
340
AE4AD
340
AE4AC
340
AE4AB
340
AE4AA
340
AE4A9
340
AE4A8
340
AE4A7
340
AE4A6
340
AE4A5
340
AE4A4
340
AE4A3
340
AE4A2
340
AE4A1
340
AE4A0
340
AE49F
340
AE49E
340
AE49D
340
AE49C
340
AE216
340
AE215
340
AE214
340
AE3CF
340
AE3D1
340
AE213
340
AE3CE
340
AE3D0
340
AE212
340
AE211
340
AE207
340
AE206
340
AE205
340
AE204
340
AE203
340
AE202
340
AE201
340
AE200
340
AE3EA
340
AE3E9
340
AE3D4
340
AE3D3
340
AE1FF
340
AE1FE
340
AE1FD
340
AE1FC
340
AE1FB
340
AE1FA
340
AE1F9
340
AE1F8
340
AE1F5
340
AE1F3
  0
GROUP
  5
AE641
102
{ACAD_REACTORS
330
D
102
}
330
D
100
AcDbGroup
300

 70
     1
 71
     1
340
AE63C
340
AE63B
340
AE639
340
AE638
340
AE523
340
AE522
340
AE521
340
AE520
340
AE51F
340
AE51E
340
AE51D
340
AE51C
340
AE51B
340
AE51A
340
AE519
340
AE518
340
AE517
340
AE516
340
AE515
340
AE514
340
AE513
340
AE512
340
AE511
340
AE510
340
AE50F
340
AE50E
340
AE50D
340
AE50C
340
AE50B
340
AE50A
340
AE509
340
AE508
340
AE507
340
AE506
340
AE505
340
AE504
340
AE503
340
AE502
340
AE501
340
AE500
340
AE4FF
340
AE4FE
340
AE4FD
340
AE4FC
340
AE4FB
340
AE4FA
340
AE4F9
340
AE4F8
340
AE4F7
340
AE4F6
340
AE4F5
340
AE4F4
340
AE4F3
340
AE4F2
340
AE4F1
340
AE4F0
340
AE4EF
340
AE4EE
340
AE4ED
340
AE4EC
340
AE4EB
340
AE4EA
340
AE4E9
340
AE4E8
340
AE4E7
340
AE4E6
340
AE4E5
340
AE4E4
340
AE4E3
340
AE4E2
340
AE4E1
340
AE4E0
340
AE4DF
340
AE4DE
340
AE4DD
340
AE4DC
340
AE4DB
340
AE4D9
340
AE4D8
340
AE4D7
340
AE4D5
  0
GROUP
  5
AE642
102
{ACAD_REACTORS
330
D
102
}
330
D
100
AcDbGroup
300

 70
     1
 71
     1
340
AE636
340
AE635
340
AE634
340
AE633
340
AE632
340
AE631
340
AE630
340
AE62F
340
AE62E
340
AE62D
340
AE62C
340
AE62B
340
AE62A
340
AE629
340
AE628
340
AE627
340
AE626
340
AE625
340
AE624
340
AE623
340
AE622
340
AE621
340
AE620
340
AE61F
340
AE61E
340
AE61D
340
AE61C
340
AE61B
340
AE61A
340
AE619
340
AE618
340
AE617
340
AE616
340
AE615
340
AE614
340
AE613
340
AE612
340
AE611
340
AE60B
340
AE60A
340
AE609
340
AE608
340
AE607
340
AE606
340
AE605
340
AE604
340
AE603
340
AE602
340
AE601
340
AE600
340
AE5FF
340
AE5FE
340
AE5FD
340
AE5FC
340
AE5FB
340
AE5FA
340
AE5F9
340
AE5F8
340
AE5F7
340
AE5F6
340
AE5F5
340
AE5F4
340
AE5F3
340
AE5F2
340
AE5F1
340
AE5F0
340
AE5EF
340
AE5EE
340
AE5ED
340
AE5EC
340
AE5EB
340
AE5EA
340
AE5E9
340
AE5E8
340
AE5E7
340
AE5E6
340
AE5E5
340
AE5E4
340
AE5E3
340
AE5E2
340
AE5E1
340
AE5E0
340
AE5DF
340
AE5DE
340
AE5DD
340
AE5DC
340
AE5DB
340
AE5DA
340
AE5D9
340
AE5D8
340
AE5D7
340
AE5D6
340
AE5D5
340
AE5D4
340
AE5D3
340
AE5D2
340
AE5D1
340
AE5D0
340
AE5CF
340
AE5CE
340
AE5CD
340
AE5CC
340
AE5CB
340
AE5CA
340
AE5BF
340
AE5BE
340
AE5BD
340
AE5BC
340
AE5BB
340
AE5BA
340
AE5B9
340
AE5B8
340
AE5B7
340
AE5B6
340
AE5A5
340
AE5A4
340
AE5A3
340
AE5A2
340
AE59F
340
AE56B
340
AE55D
340
AE55C
340
AE55B
340
AE557
340
AE556
  0
LAYOUT
  5
A21A1
102
{ACAD_REACTORS
330
1A
102
}
330
1A
100
AcDbPlotSettings
  1

  2
DWG To PDF.pc3
  4
ANSI_A_(8.50_x_11.00_Inches)
  6

 40
5.793749809265136
 41
17.79375076293945
 42
5.793746948242187
 43
17.79376220703125
 44
215.8999938964844
 45
279.3999938964844
 46
0.0
 47
0.0
 48
0.0
 49
0.0
140
0.0
141
0.0
142
1.0
143
1.0
 70
   688
 72
     0
 73
     0
 74
     5
  7
Hunter Industries.ctb
 75
    16
147
1.0
 76
     0
 77
     2
 78
   300
148
0.0
149
0.0
100
AcDbLayout
  1
8.5 X 11
 70
     1
 71
     1
 10
-0.2281003861915408
 20
-0.7005413686196636
 11
8.271899373512569
 21
10.29945839108444
 12
0.0
 22
0.0
 32
0.0
 14
0.0459132722802274
 24
0.0401660391341245
 34
-0.0000000000112498
 15
7.995746945807155
 25
9.570500301888532
 35
0.0000000000002956
146
0.0
 13
0.0
 23
0.0
 33
0.0
 16
1.0
 26
0.0
 36
0.0
 17
0.0
 27
1.0
 37
0.0
 76
     0
330
A21A0
331
A21AE
1001
ACAD_PSEXT
1000
DWG To PDF.pc3
1000
DWG To PDF
1000
File
1000

1070
     0
  0
LAYOUT
  5
A21B9
102
{ACAD_REACTORS
330
1A
102
}
330
1A
100
AcDbPlotSettings
  1

  2
DWG To PDF.pc3
  4
ISO_A4_(210.00_x_297.00_MM)
  6

 40
5.793749809265136
 41
17.79375076293945
 42
5.793746948242187
 43
17.79376220703125
 44
210.0
 45
297.0
 46
0.0
 47
0.0
 48
0.0
 49
0.0
140
0.0
141
0.0
142
1.0
143
0.0393700787401575
 70
   672
 72
     1
 73
     0
 74
     5
  7
Standard Pen Settings.ctb
 75
    16
147
25.4
 76
     0
 77
     2
 78
   300
148
0.0
149
0.0
100
AcDbLayout
  1
A4
 70
     1
 71
     2
 10
-0.2281003861915408
 20
-0.7005413686196636
 11
8.039616149241531
 21
10.99237201720711
 12
0.0
 22
0.0
 32
0.0
 14
0.0151271339565469
 24
0.0127806155593326
 34
-0.0000000000000058
 15
7.790080900453517
 25
10.25763972358691
 35
0.0000000000000104
146
0.0
 13
0.0
 23
0.0
 33
0.0
 16
1.0
 26
0.0
 36
0.0
 17
0.0
 27
1.0
 37
0.0
 76
     0
330
A21B8
331
A21C6
1001
ACAD_PSEXT
1000
DWG To PDF.pc3
1000
DWG To PDF
1000
File
1000

1070
     0
  0
LAYOUT
  5
22
102
{ACAD_XDICTIONARY
360
66EB6
102
}
102
{ACAD_REACTORS
330
1A
102
}
330
1A
100
AcDbPlotSettings
  1

  2
DWG To PDF.pc3
  4
ANSI_full_bleed_A_(8.50_x_11.00_Inches)
  6

 40
0.7937499880790711
 41
0.7937499880790711
 42
0.7937469482421875
 43
0.79376220703125
 44
215.8999938964844
 45
279.3999938964844
 46
30.37052290086102
 47
0.0
 48
-146.9342066687381
 49
-1.639012634498612
140
-81.17209046769231
141
34.71350671378767
142
1.0
143
6.012536734408003
 70
 11956
 72
     0
 73
     1
 74
     4
  7
Standard Pen Settings.ctb
 75
     0
147
0.1663191501645703
 76
     0
 77
     2
 78
   300
148
3732.128849385947
149
41.63092091626476
100
AcDbLayout
  1
Model
 70
     1
 71
     0
 10
0.0
 20
0.0
 11
12.0
 21
9.0
 12
0.0
 22
0.0
 32
0.0
 14
0.0
 24
0.0
 34
0.0
 15
0.0
 25
0.0
 35
0.0
146
0.0
 13
0.0
 23
0.0
 33
0.0
 16
1.0
 26
0.0
 36
0.0
 17
0.0
 27
1.0
 37
0.0
 76
     0
330
1F
331
DAB
1001
ACAD_PSEXT
1000
DWG To PDF.pc3
1000
DWG To PDF
1000
File
1000

1070
     0
  0
MATERIAL
  5
97
102
{ACAD_REACTORS
330
72
102
}
330
72
100
AcDbMaterial
  1
ByBlock
 73
     1
 78
     1
172
     1
176
     1
270
     1
274
     1
 94
       63
  0
MATERIAL
  5
96
102
{ACAD_REACTORS
330
72
102
}
330
72
100
AcDbMaterial
  1
ByLayer
 73
     1
 78
     1
172
     1
176
     1
270
     1
274
     1
 94
       63
  0
MATERIAL
  5
98
102
{ACAD_REACTORS
330
72
102
}
330
72
100
AcDbMaterial
  1
Global
 73
     1
 78
     1
172
     1
176
     1
270
     1
274
     1
 94
       63
  0
MLEADERSTYLE
  5
A34
102
{ACAD_REACTORS
330
A33
102
}
330
A33
100
AcDbMLeaderStyle
179
     2
170
     2
171
     1
172
     0
 90
        2
 40
0.0
 41
0.0
173
     1
 91
-1056964608
340
14
 92
       -2
290
     1
 42
0.09
291
     1
 43
0.36
  3
Standard
 44
0.18
300

342
11
174
     1
178
     6
175
     1
176
     0
 93
-1056964608
 45
0.18
292
     0
297
     0
 46
0.18
 94
-1056964608
 47
1.0
 49
1.0
140
1.0
293
     1
141
0.0
294
     1
177
     0
142
1.0
295
     0
296
     0
143
0.125
271
     0
272
     9
273
     9
298
     0
  0
MLINESTYLE
  5
18
102
{ACAD_REACTORS
330
17
102
}
330
17
100
AcDbMlineStyle
  2
STANDARD
 70
     0
  3

 62
   256
 51
90.0
 52
90.0
 71
     2
 49
0.5
 62
   256
  6
BYLAYER
 49
-0.5
 62
   256
  6
BYLAYER
  0
PLOTSETTINGS
  5
E0
102
{ACAD_REACTORS
330
19
102
}
330
19
100
AcDbPlotSettings
  1
500 - 24x36
  2
HP DesignJet 500 42 by HP.pc3
  4
User1659
  6

 40
0.0
 41
0.0
 42
0.0
 43
0.0
 44
914.4000244140626
 45
609.6000366210937
 46
0.0000122070312948
 47
0.000018310546897
 48
0.0
 49
0.0
140
36.0
141
24.0
142
1.0
143
1.0
 70
  2740
 72
     0
 73
     0
 74
     4
  7
DVD 2005.ctb
 75
    16
147
1.0
 76
     0
 77
     2
 78
   300
148
0.0
149
0.0
1001
ACAD_PSEXT
1000
HP DesignJet 500 42 by HP.pc3
1000
HP DesignJet 500 42 by HP
1000
\\bobxp2
1000

1070
     0
  0
PLOTSETTINGS
  5
DE
102
{ACAD_REACTORS
330
19
102
}
330
19
100
AcDbPlotSettings
  1
500 - 30x42 Landscape
  2
HP DesignJet 500 42 by HP.pc3
  4
User637
  6

 40
0.0
 41
0.0
 42
0.0
 43
0.0
 44
762.0
 45
1066.800048828125
 46
-0.0000000000000902
 47
0.0000244140624993
 48
-44.0
 49
0.0000000000000071
140
-2.0
141
30.00000000000002
142
1.0
143
1.0
 70
  2804
 72
     0
 73
     1
 74
     4
  7
DVD 2005.ctb
 75
    16
147
1.0
 76
     0
 77
     2
 78
   300
148
1117.6
149
-0.0000000000001805
1001
ACAD_PSEXT
1000
HP DesignJet 500 42 by HP.pc3
1000
HP DesignJet 500 42 by HP
1000
\\bobxp2
1000

1070
     0
  0
PLOTSETTINGS
  5
DF
102
{ACAD_REACTORS
330
19
102
}
330
19
100
AcDbPlotSettings
  1
500 - 30x42 Portrait
  2
HP DesignJet 500 42 by HP.pc3
  4
User637
  6

 40
0.0
 41
0.0
 42
0.0
 43
0.0
 44
762.0
 45
1066.800048828125
 46
-0.0000000000000902
 47
0.0000244140626798
 48
-38.0
 49
34.00000000000002
140
-7.999999999999992
141
76.0
142
1.0
143
1.0
 70
  2804
 72
     0
 73
     0
 74
     4
  7
DVD 2005.ctb
 75
    16
147
1.0
 76
     0
 77
     2
 78
   300
148
965.1999999999999
149
-863.6000000000004
1001
ACAD_PSEXT
1000
HP DesignJet 500 42 by HP.pc3
1000
HP DesignJet 500 42 by HP
1000
\\bobxp2
1000

1070
     0
  0
PLOTSETTINGS
  5
1052
102
{ACAD_REACTORS
330
19
102
}
330
19
100
AcDbPlotSettings
  1
6200 8.5x11
  2
HP Officejet 6200 series (Copy 1)
  4
Letter
  6

 40
3.96875
 41
3.799404859542846
 42
3.968734741210937
 43
3.17498779296875
 44
215.8999938964844
 45
279.3999938964844
 46
0.0
 47
0.0
 48
0.0
 49
0.0
140
0.0
141
0.0
142
1.0
143
1.0
 70
 15024
 72
     0
 73
     1
 74
     5
  7
DVD 2005.ctb
 75
    16
147
1.0
 76
     0
 77
     2
 78
   300
148
0.0
149
0.0
1001
ACAD_PSEXT
1000
HP Officejet 6200 series (Copy 1)
1000
HP Officejet 6200 series
1000
USB002
1000

1070
     0
  0
PLOTSETTINGS
  5
E1
102
{ACAD_REACTORS
330
19
102
}
330
19
100
AcDbPlotSettings
  1
9800 - 11x17 Reduced
  2
HP Deskjet 9800 Series.pc3
  4
Tabloid
  6

 40
4.011083126068115
 41
15.65274238586425
 42
4.011077880859375
 43
3.17498779296875
 44
279.3999938964844
 45
431.7999877929687
 46
0.0
 47
2.952754139900229
 48
0.0
 49
0.0
140
36.0
141
24.0
142
1.0
143
2.246314643717012
 70
  2740
 72
     0
 73
     1
 74
     4
  7
DVD 2005.ctb
 75
     0
147
0.4451736103831314
 76
     0
 77
     2
 78
   300
148
0.0
149
0.0
1001
ACAD_PSEXT
1000
HP Deskjet 9800 Series.pc3
1000
HP Deskjet 9800 Series
1000
\\Server
1000

1070
     0
  0
PLOTSETTINGS
  5
E2
102
{ACAD_REACTORS
330
19
102
}
330
19
100
AcDbPlotSettings
  1
K550 - 8x11 Reduced
  2
HP Officejet Pro K550 Series.pc3
  4
Letter
  6

 40
4.095749855041503
 41
12.73173427581787
 42
4.095748901367187
 43
4.09576416015625
 44
215.8999938964844
 45
279.3999938964844
 46
16.3300824165344
 47
0.0
 48
0.0
 49
0.0
140
36.0
141
24.0
142
1.0
143
3.482466807486017
 70
  2804
 72
     0
 73
     1
 74
     4
  7
DVD 2005.ctb
 75
     0
147
0.2871527728133314
 76
     0
 77
     2
 78
   300
148
0.0
149
0.0
1001
ACAD_PSEXT
1000
HP Officejet Pro K550 Series.pc3
1000
HP Officejet Pro K550 Series
1000
Next to Jodi
1000

1070
     0
  0
ACDBPLACEHOLDER
  5
F
102
{ACAD_REACTORS
330
E
102
}
330
E
  0
DICTIONARY
  5
A15E6
330
A15E5
100
AcDbDictionary
280
     1
281
     1
  3
ADSK_XREC_MENTALRAYSETTINGSINFO
360
A15E7
  0
SCALE
  5
4D48B
102
{ACAD_REACTORS
330
A11
102
}
330
A11
100
AcDbScale
 70
     0
300
1" = 40'
140
1.0
141
40.0
290
     0
  0
SCALE
  5
4D48C
102
{ACAD_REACTORS
330
A11
102
}
330
A11
100
AcDbScale
 70
     0
300
1" = 1'
140
1.0
141
1.0
290
     0
  0
SCALE
  5
5C55A
102
{ACAD_REACTORS
330
A11
102
}
330
A11
100
AcDbScale
 70
     0
300
1" =10'_XREF
140
1.0
141
10.0
290
     0
  0
SCALE
  5
5C55B
102
{ACAD_REACTORS
330
A11
102
}
330
A11
100
AcDbScale
 70
     0
300
2" = 1'-0"_XREF
140
2.0
141
12.0
290
     0
  0
SCALE
  5
A12
102
{ACAD_REACTORS
330
A11
102
}
330
A11
100
AcDbScale
 70
     0
300
1:1
140
1.0
141
1.0
290
     0
  0
SCALE
  5
1DC91
102
{ACAD_REACTORS
330
A11
102
}
330
A11
100
AcDbScale
 70
     0
300
1:2
140
1.0
141
2.0
290
     0
  0
SCALE
  5
1DC92
102
{ACAD_REACTORS
330
A11
102
}
330
A11
100
AcDbScale
 70
     0
300
1:4
140
1.0
141
4.0
290
     0
  0
SCALE
  5
1DC93
102
{ACAD_REACTORS
330
A11
102
}
330
A11
100
AcDbScale
 70
     0
300
1:5
140
1.0
141
5.0
290
     0
  0
SCALE
  5
1DC94
102
{ACAD_REACTORS
330
A11
102
}
330
A11
100
AcDbScale
 70
     0
300
1:8
140
1.0
141
8.0
290
     0
  0
SCALE
  5
1DC95
102
{ACAD_REACTORS
330
A11
102
}
330
A11
100
AcDbScale
 70
     0
300
1:10
140
1.0
141
10.0
290
     0
  0
SCALE
  5
1DC96
102
{ACAD_REACTORS
330
A11
102
}
330
A11
100
AcDbScale
 70
     0
300
1:16
140
1.0
141
16.0
290
     0
  0
SCALE
  5
1DC97
102
{ACAD_REACTORS
330
A11
102
}
330
A11
100
AcDbScale
 70
     0
300
1:20
140
1.0
141
20.0
290
     0
  0
SCALE
  5
1DC98
102
{ACAD_REACTORS
330
A11
102
}
330
A11
100
AcDbScale
 70
     0
300
1:30
140
1.0
141
30.0
290
     0
  0
SCALE
  5
1DC99
102
{ACAD_REACTORS
330
A11
102
}
330
A11
100
AcDbScale
 70
     0
300
1:40
140
1.0
141
40.0
290
     0
  0
SCALE
  5
1DC9A
102
{ACAD_REACTORS
330
A11
102
}
330
A11
100
AcDbScale
 70
     0
300
1:50
140
1.0
141
50.0
290
     0
  0
SCALE
  5
1DC9B
102
{ACAD_REACTORS
330
A11
102
}
330
A11
100
AcDbScale
 70
     0
300
1:100
140
1.0
141
100.0
290
     0
  0
SCALE
  5
1DC9C
102
{ACAD_REACTORS
330
A11
102
}
330
A11
100
AcDbScale
 70
     0
300
2:1
140
2.0
141
1.0
290
     0
  0
SCALE
  5
1DC9D
102
{ACAD_REACTORS
330
A11
102
}
330
A11
100
AcDbScale
 70
     0
300
4:1
140
4.0
141
1.0
290
     0
  0
SCALE
  5
1DC9E
102
{ACAD_REACTORS
330
A11
102
}
330
A11
100
AcDbScale
 70
     0
300
8:1
140
8.0
141
1.0
290
     0
  0
SCALE
  5
1DC9F
102
{ACAD_REACTORS
330
A11
102
}
330
A11
100
AcDbScale
 70
     0
300
10:1
140
10.0
141
1.0
290
     0
  0
SCALE
  5
1DCA0
102
{ACAD_REACTORS
330
A11
102
}
330
A11
100
AcDbScale
 70
     0
300
100:1
140
100.0
141
1.0
290
     0
  0
SCALE
  5
1DCA1
102
{ACAD_REACTORS
330
A11
102
}
330
A11
100
AcDbScale
 70
     0
300
1/128" = 1'-0"
140
0.0078125
141
12.0
290
     0
  0
SCALE
  5
1DCA2
102
{ACAD_REACTORS
330
A11
102
}
330
A11
100
AcDbScale
 70
     0
300
1/64" = 1'-0"
140
0.015625
141
12.0
290
     0
  0
SCALE
  5
1DCA3
102
{ACAD_REACTORS
330
A11
102
}
330
A11
100
AcDbScale
 70
     0
300
1/32" = 1'-0"
140
0.03125
141
12.0
290
     0
  0
SCALE
  5
1DCA4
102
{ACAD_REACTORS
330
A11
102
}
330
A11
100
AcDbScale
 70
     0
300
1/16" = 1'-0"
140
0.0625
141
12.0
290
     0
  0
SCALE
  5
1DCA5
102
{ACAD_REACTORS
330
A11
102
}
330
A11
100
AcDbScale
 70
     0
300
3/32" = 1'-0"
140
0.09375
141
12.0
290
     0
  0
SCALE
  5
1DCA6
102
{ACAD_REACTORS
330
A11
102
}
330
A11
100
AcDbScale
 70
     0
300
1/8" = 1'-0"
140
0.125
141
12.0
290
     0
  0
SCALE
  5
1DCA7
102
{ACAD_REACTORS
330
A11
102
}
330
A11
100
AcDbScale
 70
     0
300
3/16" = 1'-0"
140
0.1875
141
12.0
290
     0
  0
SCALE
  5
1DCA8
102
{ACAD_REACTORS
330
A11
102
}
330
A11
100
AcDbScale
 70
     0
300
1/4" = 1'-0"
140
0.25
141
12.0
290
     0
  0
SCALE
  5
1DCA9
102
{ACAD_REACTORS
330
A11
102
}
330
A11
100
AcDbScale
 70
     0
300
3/8" = 1'-0"
140
0.375
141
12.0
290
     0
  0
SCALE
  5
1DCAA
102
{ACAD_REACTORS
330
A11
102
}
330
A11
100
AcDbScale
 70
     0
300
1/2" = 1'-0"
140
0.5
141
12.0
290
     0
  0
SCALE
  5
1DCAB
102
{ACAD_REACTORS
330
A11
102
}
330
A11
100
AcDbScale
 70
     0
300
3/4" = 1'-0"
140
0.75
141
12.0
290
     0
  0
SCALE
  5
1DCAC
102
{ACAD_REACTORS
330
A11
102
}
330
A11
100
AcDbScale
 70
     0
300
1" = 1'-0"
140
1.0
141
12.0
290
     0
  0
SCALE
  5
1DCAD
102
{ACAD_REACTORS
330
A11
102
}
330
A11
100
AcDbScale
 70
     0
300
1-1/2" = 1'-0"
140
1.5
141
12.0
290
     0
  0
SCALE
  5
1DCAE
102
{ACAD_REACTORS
330
A11
102
}
330
A11
100
AcDbScale
 70
     0
300
3" = 1'-0"
140
3.0
141
12.0
290
     0
  0
SCALE
  5
1DCAF
102
{ACAD_REACTORS
330
A11
102
}
330
A11
100
AcDbScale
 70
     0
300
6" = 1'-0"
140
6.0
141
12.0
290
     0
  0
SCALE
  5
1DCB0
102
{ACAD_REACTORS
330
A11
102
}
330
A11
100
AcDbScale
 70
     0
300
1'-0" = 1'-0"
140
12.0
141
12.0
290
     1
  0
ACDBSECTIONVIEWSTYLE
  5
5C43E
102
{ACAD_XDICTIONARY
360
A21DD
102
}
102
{ACAD_REACTORS
330
5C43D
102
}
330
5C43D
100
AcDbModelDocViewStyle
 70
     0
  3
Imperial24
290
     0
100
AcDbSectionViewStyle
 70
     0
 71
     0
 90
       78
 71
     1
340
11
 62
   256
 40
0.24
340
0
340
0
 62
   256
 40
0.24
300
I, O, Q, S, X, Z
 40
0.48
 90
        3
 40
0.18
 90
        1
 71
     2
340
16
 90
       25
 62
   256
340
16
 90
       50
 62
   256
 40
0.24
 40
0.0
 40
0.24
 71
     3
340
11
 62
   256
 40
0.24
 90
        1
 40
0.75
 90
        1
300
%<\AcVar ViewType \f "%tc1">% %<\AcVar ViewSectionStartId>%-%<\AcVar ViewSectionEndId>%\PSCALE %<\AcVar ViewScale \f "%sn">%
 71
     4
 62
   256
 62
   257
300
ANSI31
 40
1.0
 90
        0
290
     0
290
     0
 90
        6
 40
0.0
 40
1.570796326794896
 40
0.2617993877991494
 40
1.308996938995747
 40
-0.2617993877991494
 40
1.832595714594046
  0
TABLESTYLE
  5
87
102
{ACAD_XDICTIONARY
360
B4E
102
}
102
{ACAD_REACTORS
330
86
102
}
330
86
100
AcDbTableStyle
280
     0
  3
Standard
 70
     0
 71
     0
 40
0.06
 41
0.06
280
     0
281
     0
  7
Standard
140
0.18
170
     2
 62
     0
 63
     7
283
     0
 90
      512
 91
        0
  1

274
    -2
284
     1
 64
     0
275
    -2
285
     1
 65
     0
276
    -2
286
     1
 66
     0
277
    -2
287
     1
 67
     0
278
    -2
288
     1
 68
     0
279
    -2
289
     1
 69
     0
  7
Standard
140
0.25
170
     5
 62
     0
 63
     7
283
     0
 90
      512
 91
        0
  1

274
    -2
284
     1
 64
     0
275
    -2
285
     1
 65
     0
276
    -2
286
     1
 66
     0
277
    -2
287
     1
 67
     0
278
    -2
288
     1
 68
     0
279
    -2
289
     1
 69
     0
  7
Standard
140
0.18
170
     5
 62
     0
 63
     7
283
     0
 90
      512
 91
        0
  1

274
    -2
284
     1
 64
     0
275
    -2
285
     1
 65
     0
276
    -2
286
     1
 66
     0
277
    -2
287
     1
 67
     0
278
    -2
288
     1
 68
     0
279
    -2
289
     1
 69
     0
  0
VISUALSTYLE
  5
9F
102
{ACAD_REACTORS
330
99
102
}
330
99
100
AcDbVisualStyle
  2
2dWireframe
 70
     4
177
     3
291
     0
 70
    58
 90
        0
176
     1
 90
        2
176
     1
 90
        1
176
     1
 90
        0
176
     1
 40
0.6
176
     1
 40
30.0
176
     1
 62
     7
420
 16777215
176
     1
 90
        1
176
     1
 90
        4
176
     1
 62
     7
176
     1
 62
   257
176
     1
 90
        1
176
     1
 90
        1
176
     1
 40
1.0
176
     1
 90
        0
176
     1
 62
   257
176
     1
 40
1.0
176
     1
 90
        1
176
     1
 90
        6
176
     1
 90
        2
176
     1
 62
     7
176
     1
 90
        5
176
     1
 90
        0
176
     1
 90
        0
176
     1
290
     0
176
     1
 90
        1
176
     1
 40
0.0
176
     1
 90
        0
176
     1
290
     1
176
     1
290
     1
176
     1
290
     0
176
     1
290
     0
176
     1
290
     0
176
     1
290
     0
176
     1
290
     0
176
     1
290
     0
176
     1
290
     0
176
     1
 90
       50
176
     1
 40
0.0
176
     1
 40
1.0
176
     1
 90
        0
176
     1
 62
    18
420
        0
176
     1
 90
       50
176
     1
 90
        3
176
     1
 62
     5
420
      255
176
     1
290
     0
176
     1
 90
       50
176
     1
 90
       50
176
     1
 90
       50
176
     1
290
     0
176
     1
 90
       50
176
     1
 62
   256
176
     0
 40
1.0
176
     0
 90
        2
176
     1
  1
strokes_ogs.tif
176
     1
290
     0
176
     1
 40
1.0
176
     1
 40
1.0
176
     1
  0
VISUALSTYLE
  5
A1
102
{ACAD_REACTORS
330
99
102
}
330
99
100
AcDbVisualStyle
  2
3D Hidden
 70
     6
177
     3
291
     0
 70
    58
 90
        1
176
     1
 90
        2
176
     1
 90
        2
176
     1
 90
        0
176
     1
 40
0.6
176
     1
 40
30.0
176
     1
 62
     7
420
 16777215
176
     1
 90
        2
176
     1
 90
        2
176
     1
 62
     7
176
     1
 62
   257
176
     1
 90
        2
176
     1
 90
        1
176
     1
 40
40.0
176
     1
 90
        0
176
     1
 62
   257
176
     1
 40
1.0
176
     1
 90
        1
176
     1
 90
        6
176
     1
 90
        2
176
     1
 62
     7
176
     1
 90
        3
176
     1
 90
        0
176
     1
 90
        0
176
     1
290
     0
176
     1
 90
        1
176
     1
 40
0.0
176
     1
 90
        0
176
     1
290
     0
176
     1
290
     1
176
     1
290
     1
176
     1
290
     0
176
     1
290
     0
176
     1
290
     0
176
     1
290
     0
176
     1
290
     0
176
     1
290
     0
176
     1
 90
       50
176
     1
 40
0.0
176
     1
 40
1.0
176
     1
 90
        0
176
     1
 62
    18
420
        0
176
     1
 90
       50
176
     1
 90
        3
176
     1
 62
     5
420
      255
176
     1
290
     0
176
     1
 90
       50
176
     1
 90
       50
176
     1
 90
       50
176
     1
290
     0
176
     1
 90
       50
176
     1
 62
   256
176
     0
 40
1.0
176
     0
 90
        2
176
     1
  1
strokes_ogs.tif
176
     1
290
     0
176
     1
 40
1.0
176
     1
 40
1.0
176
     1
  0
VISUALSTYLE
  5
A0
102
{ACAD_REACTORS
330
99
102
}
330
99
100
AcDbVisualStyle
  2
3dWireframe
 70
     5
177
     3
291
     0
 70
    58
 90
        0
176
     1
 90
        2
176
     1
 90
        1
176
     1
 90
        0
176
     1
 40
0.6
176
     1
 40
30.0
176
     1
 62
     7
420
 16777215
176
     1
 90
        1
176
     1
 90
        4
176
     1
 62
     7
176
     1
 62
   257
176
     1
 90
        1
176
     1
 90
        1
176
     1
 40
1.0
176
     1
 90
        0
176
     1
 62
   257
176
     1
 40
1.0
176
     1
 90
        1
176
     1
 90
        6
176
     1
 90
        2
176
     1
 62
     7
176
     1
 90
        5
176
     1
 90
        0
176
     1
 90
        0
176
     1
290
     0
176
     1
 90
        1
176
     1
 40
0.0
176
     1
 90
        0
176
     1
290
     0
176
     1
290
     1
176
     1
290
     1
176
     1
290
     0
176
     1
290
     0
176
     1
290
     0
176
     1
290
     0
176
     1
290
     0
176
     1
290
     0
176
     1
 90
       50
176
     1
 40
0.0
176
     1
 40
1.0
176
     1
 90
        0
176
     1
 62
    18
420
        0
176
     1
 90
       50
176
     1
 90
        3
176
     1
 62
     5
420
      255
176
     1
290
     0
176
     1
 90
       50
176
     1
 90
       50
176
     1
 90
       50
176
     1
290
     0
176
     1
 90
       50
176
     1
 62
   256
176
     0
 40
1.0
176
     0
 90
        2
176
     1
  1
strokes_ogs.tif
176
     1
290
     0
176
     1
 40
1.0
176
     1
 40
1.0
176
     1
  0
VISUALSTYLE
  5
9E
102
{ACAD_REACTORS
330
99
102
}
330
99
100
AcDbVisualStyle
  2
Basic
 70
     7
177
     3
291
     1
 70
    58
 90
        1
176
     1
 90
        0
176
     1
 90
        1
176
     1
 90
        0
176
     1
 40
0.6
176
     1
 40
30.0
176
     1
 62
     7
420
 16777215
176
     1
 90
        0
176
     1
 90
        4
176
     1
 62
     7
176
     1
 62
   257
176
     1
 90
        1
176
     1
 90
        1
176
     1
 40
1.0
176
     1
 90
        8
176
     1
 62
     7
176
     1
 40
1.0
176
     1
 90
        1
176
     1
 90
        6
176
     1
 90
        2
176
     1
 62
     7
176
     1
 90
        5
176
     1
 90
        0
176
     1
 90
        0
176
     1
290
     0
176
     1
 90
        1
176
     1
 40
0.0
176
     1
 90
        0
176
     1
290
     0
176
     1
290
     1
176
     1
290
     1
176
     1
290
     0
176
     1
290
     0
176
     1
290
     0
176
     1
290
     0
176
     1
290
     0
176
     1
290
     0
176
     1
 90
       50
176
     1
 40
0.0
176
     1
 40
1.0
176
     1
 90
        0
176
     1
 62
    18
420
        0
176
     1
 90
       50
176
     1
 90
        3
176
     1
 62
     5
420
      255
176
     1
290
     0
176
     1
 90
       50
176
     1
 90
       50
176
     1
 90
       50
176
     1
290
     0
176
     1
 90
       50
176
     1
 62
   256
176
     0
 40
1.0
176
     0
 90
        2
176
     1
  1
strokes_ogs.tif
176
     1
290
     0
176
     1
 40
1.0
176
     1
 40
1.0
176
     1
  0
VISUALSTYLE
  5
A5
102
{ACAD_REACTORS
330
99
102
}
330
99
100
AcDbVisualStyle
  2
Brighten
 70
    12
177
     3
291
     1
 70
    58
 90
        2
176
     1
 90
        2
176
     1
 90
        1
176
     1
 90
        0
176
     1
 40
0.6
176
     1
 40
30.0
176
     1
 62
     7
420
 16777215
176
     1
 90
        1
176
     1
 90
        4
176
     1
 62
     7
176
     1
 62
   257
176
     1
 90
        1
176
     1
 90
        1
176
     1
 40
1.0
176
     1
 90
        8
176
     1
 62
     7
176
     1
 40
1.0
176
     1
 90
        1
176
     1
 90
        6
176
     1
 90
        2
176
     1
 62
     7
176
     1
 90
        5
176
     1
 90
        0
176
     1
 90
        0
176
     1
290
     0
176
     1
 90
        1
176
     1
 40
50.0
176
     1
 90
        0
176
     1
290
     0
176
     1
290
     1
176
     1
290
     1
176
     1
290
     0
176
     1
290
     0
176
     1
290
     0
176
     1
290
     0
176
     1
290
     0
176
     1
290
     0
176
     1
 90
       50
176
     1
 40
0.0
176
     1
 40
1.0
176
     1
 90
        0
176
     1
 62
    18
420
        0
176
     1
 90
       50
176
     1
 90
        3
176
     1
 62
     5
420
      255
176
     1
290
     0
176
     1
 90
       50
176
     1
 90
       50
176
     1
 90
       50
176
     1
290
     0
176
     1
 90
       50
176
     1
 62
   256
176
     0
 40
1.0
176
     0
 90
        2
176
     1
  1
strokes_ogs.tif
176
     1
290
     0
176
     1
 40
1.0
176
     1
 40
1.0
176
     1
  0
VISUALSTYLE
  5
A9
102
{ACAD_REACTORS
330
99
102
}
330
99
100
AcDbVisualStyle
  2
ColorChange
 70
    16
177
     3
291
     1
 70
    58
 90
        2
176
     1
 90
        2
176
     1
 90
        3
176
     1
 90
        0
176
     1
 40
0.6
176
     1
 40
30.0
176
     1
 62
     8
420
  8421504
176
     1
 90
        1
176
     1
 90
        4
176
     1
 62
     7
176
     1
 62
   257
176
     1
 90
        1
176
     1
 90
        1
176
     1
 40
1.0
176
     1
 90
        8
176
     1
 62
     8
420
  8421504
176
     1
 40
1.0
176
     1
 90
        1
176
     1
 90
        6
176
     1
 90
        2
176
     1
 62
     7
176
     1
 90
        5
176
     1
 90
        0
176
     1
 90
        0
176
     1
290
     0
176
     1
 90
        1
176
     1
 40
0.0
176
     1
 90
        0
176
     1
290
     0
176
     1
290
     1
176
     1
290
     1
176
     1
290
     0
176
     1
290
     0
176
     1
290
     0
176
     1
290
     0
176
     1
290
     0
176
     1
290
     0
176
     1
 90
       50
176
     1
 40
0.0
176
     1
 40
1.0
176
     1
 90
        0
176
     1
 62
    18
420
        0
176
     1
 90
       50
176
     1
 90
        3
176
     1
 62
     5
420
      255
176
     1
290
     0
176
     1
 90
       50
176
     1
 90
       50
176
     1
 90
       50
176
     1
290
     0
176
     1
 90
       50
176
     1
 62
   256
176
     0
 40
1.0
176
     0
 90
        2
176
     1
  1
strokes_ogs.tif
176
     1
290
     0
176
     1
 40
1.0
176
     1
 40
1.0
176
     1
  0
VISUALSTYLE
  5
A2
102
{ACAD_REACTORS
330
99
102
}
330
99
100
AcDbVisualStyle
  2
Conceptual
 70
     9
177
     3
291
     0
 70
    58
 90
        3
176
     1
 90
        2
176
     1
 90
        1
176
     1
 90
        0
176
     1
 40
0.6
176
     1
 40
30.0
176
     1
 62
     7
420
 16777215
176
     1
 90
        2
176
     1
 90
        2
176
     1
 62
     7
176
     1
 62
   257
176
     1
 90
        1
176
     1
 90
        1
176
     1
 40
40.0
176
     1
 90
        8
176
     1
 62
     7
176
     1
 40
1.0
176
     1
 90
        1
176
     1
 90
        6
176
     1
 90
        2
176
     1
 62
     7
176
     1
 90
        3
176
     1
 90
        0
176
     1
 90
        0
176
     1
290
     0
176
     1
 90
        1
176
     1
 40
0.0
176
     1
 90
        0
176
     1
290
     0
176
     1
290
     1
176
     1
290
     1
176
     1
290
     0
176
     1
290
     0
176
     1
290
     0
176
     1
290
     0
176
     1
290
     0
176
     1
290
     0
176
     1
 90
       50
176
     1
 40
0.0
176
     1
 40
1.0
176
     1
 90
        0
176
     1
 62
    18
420
        0
176
     1
 90
       50
176
     1
 90
        3
176
     1
 62
     5
420
      255
176
     1
290
     0
176
     1
 90
       50
176
     1
 90
       50
176
     1
 90
       50
176
     1
290
     0
176
     1
 90
       50
176
     1
 62
   256
176
     0
 40
1.0
176
     0
 90
        2
176
     1
  1
strokes_ogs.tif
176
     1
290
     0
176
     1
 40
1.0
176
     1
 40
1.0
176
     1
  0
VISUALSTYLE
  5
A4
102
{ACAD_REACTORS
330
99
102
}
330
99
100
AcDbVisualStyle
  2
Dim
 70
    11
177
     3
291
     1
 70
    58
 90
        2
176
     1
 90
        2
176
     1
 90
        1
176
     1
 90
        0
176
     1
 40
0.6
176
     1
 40
30.0
176
     1
 62
     7
420
 16777215
176
     1
 90
        1
176
     1
 90
        4
176
     1
 62
     7
176
     1
 62
   257
176
     1
 90
        1
176
     1
 90
        1
176
     1
 40
1.0
176
     1
 90
        8
176
     1
 62
     7
176
     1
 40
1.0
176
     1
 90
        1
176
     1
 90
        6
176
     1
 90
        2
176
     1
 62
     7
176
     1
 90
        5
176
     1
 90
        0
176
     1
 90
        0
176
     1
290
     0
176
     1
 90
        1
176
     1
 40
-50.0
176
     1
 90
        0
176
     1
290
     0
176
     1
290
     1
176
     1
290
     1
176
     1
290
     0
176
     1
290
     0
176
     1
290
     0
176
     1
290
     0
176
     1
290
     0
176
     1
290
     0
176
     1
 90
       50
176
     1
 40
0.0
176
     1
 40
1.0
176
     1
 90
        0
176
     1
 62
    18
420
        0
176
     1
 90
       50
176
     1
 90
        3
176
     1
 62
     5
420
      255
176
     1
290
     0
176
     1
 90
       50
176
     1
 90
       50
176
     1
 90
       50
176
     1
290
     0
176
     1
 90
       50
176
     1
 62
   256
176
     0
 40
1.0
176
     0
 90
        2
176
     1
  1
strokes_ogs.tif
176
     1
290
     0
176
     1
 40
1.0
176
     1
 40
1.0
176
     1
  0
VISUALSTYLE
  5
5C43C
102
{ACAD_REACTORS
330
99
102
}
330
99
100
AcDbVisualStyle
  2
EdgeColorOff
 70
    22
177
     3
291
     1
 70
    58
 90
        2
176
     0
 90
        2
176
     0
 90
        0
176
     0
 90
        0
176
     0
 40
0.6
176
     0
 40
30.0
176
     0
 62
     7
420
 16777215
176
     0
 90
        1
176
     0
 90
        4
176
     0
 62
     7
176
     0
 62
   257
176
     0
 90
        1
176
     0
 90
        1
176
     0
 40
1.0
176
     0
 90
        8
176
     2
 62
     7
176
     0
 40
1.0
176
     0
 90
        1
176
     0
 90
        6
176
     0
 90
        2
176
     0
 62
     7
176
     0
 90
        5
176
     0
 90
        0
176
     0
 90
        0
176
     0
290
     0
176
     0
 90
        1
176
     0
 40
0.0
176
     0
 90
        0
176
     0
290
     0
176
     0
290
     1
176
     0
290
     1
176
     0
290
     0
176
     0
290
     0
176
     0
290
     0
176
     0
290
     0
176
     0
290
     0
176
     0
290
     0
176
     0
 90
       50
176
     0
 40
0.0
176
     0
 40
1.0
176
     0
 90
        0
176
     0
 62
    18
420
        0
176
     0
 90
       50
176
     0
 90
        3
176
     0
 62
     5
420
      255
176
     0
290
     0
176
     0
 90
       50
176
     0
 90
       50
176
     0
 90
       50
176
     0
290
     0
176
     0
 90
       50
176
     0
 62
   256
176
     0
 40
1.0
176
     0
 90
        2
176
     0
  1
strokes_ogs.tif
176
     0
290
     0
176
     0
 40
1.0
176
     0
 40
1.0
176
     0
  0
VISUALSTYLE
  5
A8
102
{ACAD_REACTORS
330
99
102
}
330
99
100
AcDbVisualStyle
  2
Facepattern
 70
    15
177
     3
291
     1
 70
    58
 90
        2
176
     1
 90
        2
176
     1
 90
        1
176
     1
 90
        0
176
     1
 40
0.6
176
     1
 40
30.0
176
     1
 62
     7
420
 16777215
176
     1
 90
        1
176
     1
 90
        4
176
     1
 62
     7
176
     1
 62
   257
176
     1
 90
        1
176
     1
 90
        1
176
     1
 40
1.0
176
     1
 90
        8
176
     1
 62
     7
176
     1
 40
1.0
176
     1
 90
        1
176
     1
 90
        6
176
     1
 90
        2
176
     1
 62
     7
176
     1
 90
        5
176
     1
 90
        0
176
     1
 90
        0
176
     1
290
     0
176
     1
 90
        1
176
     1
 40
0.0
176
     1
 90
        0
176
     1
290
     0
176
     1
290
     1
176
     1
290
     1
176
     1
290
     0
176
     1
290
     0
176
     1
290
     0
176
     1
290
     0
176
     1
290
     0
176
     1
290
     0
176
     1
 90
       50
176
     1
 40
0.0
176
     1
 40
1.0
176
     1
 90
        0
176
     1
 62
    18
420
        0
176
     1
 90
       50
176
     1
 90
        3
176
     1
 62
     5
420
      255
176
     1
290
     0
176
     1
 90
       50
176
     1
 90
       50
176
     1
 90
       50
176
     1
290
     0
176
     1
 90
       50
176
     1
 62
   256
176
     0
 40
1.0
176
     0
 90
        2
176
     1
  1
strokes_ogs.tif
176
     1
290
     0
176
     1
 40
1.0
176
     1
 40
1.0
176
     1
  0
VISUALSTYLE
  5
9A
102
{ACAD_REACTORS
330
99
102
}
330
99
100
AcDbVisualStyle
  2
Flat
 70
     0
177
     3
291
     1
 70
    58
 90
        2
176
     1
 90
        1
176
     1
 90
        1
176
     1
 90
        2
176
     1
 40
0.6
176
     1
 40
30.0
176
     1
 62
     7
420
 16777215
176
     1
 90
        0
176
     1
 90
        4
176
     1
 62
     7
176
     1
 62
   257
176
     1
 90
        1
176
     1
 90
        1
176
     1
 40
1.0
176
     1
 90
        8
176
     1
 62
     7
176
     1
 40
1.0
176
     1
 90
        1
176
     1
 90
        6
176
     1
 90
        2
176
     1
 62
     7
176
     1
 90
        5
176
     1
 90
        0
176
     1
 90
        0
176
     1
290
     0
176
     1
 90
        1
176
     1
 40
0.0
176
     1
 90
        0
176
     1
290
     0
176
     1
290
     1
176
     1
290
     1
176
     1
290
     0
176
     1
290
     0
176
     1
290
     0
176
     1
290
     0
176
     1
290
     0
176
     1
290
     0
176
     1
 90
       50
176
     1
 40
0.0
176
     1
 40
1.0
176
     1
 90
        0
176
     1
 62
    18
420
        0
176
     1
 90
       50
176
     1
 90
        3
176
     1
 62
     5
420
      255
176
     1
290
     0
176
     1
 90
       50
176
     1
 90
       50
176
     1
 90
       50
176
     1
290
     0
176
     1
 90
       50
176
     1
 62
   256
176
     0
 40
1.0
176
     0
 90
        2
176
     1
  1
strokes_ogs.tif
176
     1
290
     0
176
     1
 40
1.0
176
     1
 40
1.0
176
     1
  0
VISUALSTYLE
  5
9B
102
{ACAD_REACTORS
330
99
102
}
330
99
100
AcDbVisualStyle
  2
FlatWithEdges
 70
     1
177
     3
291
     1
 70
    58
 90
        2
176
     1
 90
        1
176
     1
 90
        1
176
     1
 90
        2
176
     1
 40
0.6
176
     1
 40
30.0
176
     1
 62
     7
420
 16777215
176
     1
 90
        1
176
     1
 90
        4
176
     1
 62
     7
176
     1
 62
   257
176
     1
 90
        1
176
     1
 90
        1
176
     1
 40
1.0
176
     1
 90
        0
176
     1
 62
   257
176
     1
 40
1.0
176
     1
 90
        1
176
     1
 90
        6
176
     1
 90
        2
176
     1
 62
     7
176
     1
 90
        5
176
     1
 90
        0
176
     1
 90
        0
176
     1
290
     0
176
     1
 90
        1
176
     1
 40
0.0
176
     1
 90
        0
176
     1
290
     0
176
     1
290
     1
176
     1
290
     1
176
     1
290
     0
176
     1
290
     0
176
     1
290
     0
176
     1
290
     0
176
     1
290
     0
176
     1
290
     0
176
     1
 90
       50
176
     1
 40
0.0
176
     1
 40
1.0
176
     1
 90
        0
176
     1
 62
    18
420
        0
176
     1
 90
       50
176
     1
 90
        3
176
     1
 62
     5
420
      255
176
     1
290
     0
176
     1
 90
       50
176
     1
 90
       50
176
     1
 90
       50
176
     1
290
     0
176
     1
 90
       50
176
     1
 62
   256
176
     0
 40
1.0
176
     0
 90
        2
176
     1
  1
strokes_ogs.tif
176
     1
290
     0
176
     1
 40
1.0
176
     1
 40
1.0
176
     1
  0
VISUALSTYLE
  5
9C
102
{ACAD_REACTORS
330
99
102
}
330
99
100
AcDbVisualStyle
  2
Gouraud
 70
     2
177
     3
291
     1
 70
    58
 90
        2
176
     1
 90
        2
176
     1
 90
        1
176
     1
 90
        2
176
     1
 40
0.6
176
     1
 40
30.0
176
     1
 62
     7
420
 16777215
176
     1
 90
        0
176
     1
 90
        4
176
     1
 62
     7
176
     1
 62
   257
176
     1
 90
        1
176
     1
 90
        1
176
     1
 40
1.0
176
     1
 90
        0
176
     1
 62
     7
176
     1
 40
1.0
176
     1
 90
        1
176
     1
 90
        6
176
     1
 90
        2
176
     1
 62
     7
176
     1
 90
        5
176
     1
 90
        0
176
     1
 90
        0
176
     1
290
     0
176
     1
 90
        1
176
     1
 40
0.0
176
     1
 90
        0
176
     1
290
     0
176
     1
290
     1
176
     1
290
     1
176
     1
290
     0
176
     1
290
     0
176
     1
290
     0
176
     1
290
     0
176
     1
290
     0
176
     1
290
     0
176
     1
 90
       50
176
     1
 40
0.0
176
     1
 40
1.0
176
     1
 90
        0
176
     1
 62
    18
420
        0
176
     1
 90
       50
176
     1
 90
        3
176
     1
 62
     5
420
      255
176
     1
290
     0
176
     1
 90
       50
176
     1
 90
       50
176
     1
 90
       50
176
     1
290
     0
176
     1
 90
       50
176
     1
 62
   256
176
     0
 40
1.0
176
     0
 90
        2
176
     1
  1
strokes_ogs.tif
176
     1
290
     0
176
     1
 40
1.0
176
     1
 40
1.0
176
     1
  0
VISUALSTYLE
  5
9D
102
{ACAD_REACTORS
330
99
102
}
330
99
100
AcDbVisualStyle
  2
GouraudWithEdges
 70
     3
177
     3
291
     1
 70
    58
 90
        2
176
     1
 90
        2
176
     1
 90
        1
176
     1
 90
        2
176
     1
 40
0.6
176
     1
 40
30.0
176
     1
 62
     7
420
 16777215
176
     1
 90
        1
176
     1
 90
        4
176
     1
 62
     7
176
     1
 62
   257
176
     1
 90
        1
176
     1
 90
        1
176
     1
 40
1.0
176
     1
 90
        0
176
     1
 62
   257
176
     1
 40
1.0
176
     1
 90
        1
176
     1
 90
        6
176
     1
 90
        2
176
     1
 62
     7
176
     1
 90
        5
176
     1
 90
        0
176
     1
 90
        0
176
     1
290
     0
176
     1
 90
        1
176
     1
 40
0.0
176
     1
 90
        0
176
     1
290
     0
176
     1
290
     1
176
     1
290
     1
176
     1
290
     0
176
     1
290
     0
176
     1
290
     0
176
     1
290
     0
176
     1
290
     0
176
     1
290
     0
176
     1
 90
       50
176
     1
 40
0.0
176
     1
 40
1.0
176
     1
 90
        0
176
     1
 62
    18
420
        0
176
     1
 90
       50
176
     1
 90
        3
176
     1
 62
     5
420
      255
176
     1
290
     0
176
     1
 90
       50
176
     1
 90
       50
176
     1
 90
       50
176
     1
290
     0
176
     1
 90
       50
176
     1
 62
   256
176
     0
 40
1.0
176
     0
 90
        2
176
     1
  1
strokes_ogs.tif
176
     1
290
     0
176
     1
 40
1.0
176
     1
 40
1.0
176
     1
  0
VISUALSTYLE
  5
5C434
102
{ACAD_REACTORS
330
99
102
}
330
99
100
AcDbVisualStyle
  2
Hidden
 70
     6
177
     3
291
     0
 70
    58
 90
        1
176
     1
 90
        2
176
     1
 90
        2
176
     1
 90
        0
176
     1
 40
0.6
176
     1
 40
30.0
176
     1
 62
     7
420
 16777215
176
     1
 90
        2
176
     1
 90
        2
176
     1
 62
     7
176
     1
 62
   257
176
     1
 90
        2
176
     1
 90
        1
176
     1
 40
40.0
176
     1
 90
        0
176
     1
 62
   257
176
     1
 40
1.0
176
     1
 90
        1
176
     1
 90
        6
176
     1
 90
        2
176
     1
 62
     7
176
     1
 90
        3
176
     1
 90
        0
176
     1
 90
        0
176
     1
290
     0
176
     1
 90
        1
176
     1
 40
0.0
176
     1
 90
        0
176
     1
290
     0
176
     1
290
     1
176
     1
290
     1
176
     1
290
     0
176
     1
290
     0
176
     1
290
     0
176
     1
290
     0
176
     1
290
     0
176
     1
290
     0
176
     1
 90
       50
176
     1
 40
0.0
176
     1
 40
1.0
176
     1
 90
        0
176
     1
 62
    18
420
        0
176
     1
 90
       50
176
     1
 90
        3
176
     1
 62
     5
420
      255
176
     1
290
     0
176
     1
 90
       50
176
     1
 90
       50
176
     1
 90
       50
176
     1
290
     0
176
     1
 90
       50
176
     1
 62
   256
176
     0
 40
1.0
176
     0
 90
        2
176
     1
  1
strokes_ogs.tif
176
     1
290
     0
176
     1
 40
1.0
176
     1
 40
1.0
176
     1
  0
VISUALSTYLE
  5
5C43A
102
{ACAD_REACTORS
330
99
102
}
330
99
100
AcDbVisualStyle
  2
JitterOff
 70
    20
177
     3
291
     1
 70
    58
 90
        2
176
     0
 90
        2
176
     0
 90
        0
176
     0
 90
        0
176
     0
 40
0.6
176
     0
 40
30.0
176
     0
 62
     7
420
 16777215
176
     0
 90
        1
176
     0
 90
        4
176
     0
 62
     7
176
     0
 62
   257
176
     0
 90
        1
176
     0
 90
        1
176
     0
 40
1.0
176
     0
 90
       10
176
     2
 62
     7
176
     0
 40
1.0
176
     0
 90
        1
176
     0
 90
        6
176
     0
 90
        2
176
     0
 62
     7
176
     0
 90
        5
176
     0
 90
        0
176
     0
 90
        0
176
     0
290
     0
176
     0
 90
        1
176
     0
 40
0.0
176
     0
 90
        0
176
     0
290
     0
176
     0
290
     1
176
     0
290
     1
176
     0
290
     0
176
     0
290
     0
176
     0
290
     0
176
     0
290
     0
176
     0
290
     0
176
     0
290
     0
176
     0
 90
       50
176
     0
 40
0.0
176
     0
 40
1.0
176
     0
 90
        0
176
     0
 62
    18
420
        0
176
     0
 90
       50
176
     0
 90
        3
176
     0
 62
     5
420
      255
176
     0
290
     0
176
     0
 90
       50
176
     0
 90
       50
176
     0
 90
       50
176
     0
290
     0
176
     0
 90
       50
176
     0
 62
   256
176
     0
 40
1.0
176
     0
 90
        2
176
     0
  1
strokes_ogs.tif
176
     0
290
     0
176
     0
 40
1.0
176
     0
 40
1.0
176
     0
  0
VISUALSTYLE
  5
A7
102
{ACAD_REACTORS
330
99
102
}
330
99
100
AcDbVisualStyle
  2
Linepattern
 70
    14
177
     3
291
     1
 70
    58
 90
        2
176
     1
 90
        2
176
     1
 90
        1
176
     1
 90
        0
176
     1
 40
0.6
176
     1
 40
30.0
176
     1
 62
     7
420
 16777215
176
     1
 90
        1
176
     1
 90
        4
176
     1
 62
     7
176
     1
 62
   257
176
     1
 90
        7
176
     1
 90
        7
176
     1
 40
1.0
176
     1
 90
        8
176
     1
 62
     7
176
     1
 40
1.0
176
     1
 90
        1
176
     1
 90
        6
176
     1
 90
        2
176
     1
 62
     7
176
     1
 90
        5
176
     1
 90
        0
176
     1
 90
        0
176
     1
290
     0
176
     1
 90
        1
176
     1
 40
0.0
176
     1
 90
        0
176
     1
290
     0
176
     1
290
     1
176
     1
290
     1
176
     1
290
     0
176
     1
290
     0
176
     1
290
     0
176
     1
290
     0
176
     1
290
     0
176
     1
290
     0
176
     1
 90
       50
176
     1
 40
0.0
176
     1
 40
1.0
176
     1
 90
        0
176
     1
 62
    18
420
        0
176
     1
 90
       50
176
     1
 90
        3
176
     1
 62
     5
420
      255
176
     1
290
     0
176
     1
 90
       50
176
     1
 90
       50
176
     1
 90
       50
176
     1
290
     0
176
     1
 90
       50
176
     1
 62
   256
176
     0
 40
1.0
176
     0
 90
        2
176
     1
  1
strokes_ogs.tif
176
     1
290
     0
176
     1
 40
1.0
176
     1
 40
1.0
176
     1
  0
VISUALSTYLE
  5
5C43B
102
{ACAD_REACTORS
330
99
102
}
330
99
100
AcDbVisualStyle
  2
OverhangOff
 70
    21
177
     3
291
     1
 70
    58
 90
        2
176
     0
 90
        2
176
     0
 90
        0
176
     0
 90
        0
176
     0
 40
0.6
176
     0
 40
30.0
176
     0
 62
     7
420
 16777215
176
     0
 90
        1
176
     0
 90
        4
176
     0
 62
     7
176
     0
 62
   257
176
     0
 90
        1
176
     0
 90
        1
176
     0
 40
1.0
176
     0
 90
        9
176
     2
 62
     7
176
     0
 40
1.0
176
     0
 90
        1
176
     0
 90
        6
176
     0
 90
        2
176
     0
 62
     7
176
     0
 90
        5
176
     0
 90
        0
176
     0
 90
        0
176
     0
290
     0
176
     0
 90
        1
176
     0
 40
0.0
176
     0
 90
        0
176
     0
290
     0
176
     0
290
     1
176
     0
290
     1
176
     0
290
     0
176
     0
290
     0
176
     0
290
     0
176
     0
290
     0
176
     0
290
     0
176
     0
290
     0
176
     0
 90
       50
176
     0
 40
0.0
176
     0
 40
1.0
176
     0
 90
        0
176
     0
 62
    18
420
        0
176
     0
 90
       50
176
     0
 90
        3
176
     0
 62
     5
420
      255
176
     0
290
     0
176
     0
 90
       50
176
     0
 90
       50
176
     0
 90
       50
176
     0
290
     0
176
     0
 90
       50
176
     0
 62
   256
176
     0
 40
1.0
176
     0
 90
        2
176
     0
  1
strokes_ogs.tif
176
     0
290
     0
176
     0
 40
1.0
176
     0
 40
1.0
176
     0
  0
VISUALSTYLE
  5
A3
102
{ACAD_REACTORS
330
99
102
}
330
99
100
AcDbVisualStyle
  2
Realistic
 70
     8
177
     3
291
     0
 70
    58
 90
        2
176
     1
 90
        2
176
     1
 90
        1
176
     1
 90
        0
176
     1
 40
0.6
176
     1
 40
30.0
176
     1
 62
     7
420
 16777215
176
     1
 90
        1
176
     1
 90
        0
176
     1
 62
     7
176
     1
 62
   257
176
     1
 90
        1
176
     1
 90
        1
176
     1
 40
1.0
176
     1
 90
        8
176
     1
 62
     8
420
  7895160
176
     1
 40
1.0
176
     1
 90
        1
176
     1
 90
        6
176
     1
 90
        2
176
     1
 62
     7
176
     1
 90
        5
176
     1
 90
        0
176
     1
 90
        0
176
     1
290
     0
176
     1
 90
       13
176
     1
 40
0.0
176
     1
 90
        0
176
     1
290
     0
176
     1
290
     1
176
     1
290
     1
176
     1
290
     0
176
     1
290
     0
176
     1
290
     0
176
     1
290
     0
176
     1
290
     0
176
     1
290
     0
176
     1
 90
       50
176
     1
 40
0.0
176
     1
 40
1.0
176
     1
 90
        0
176
     1
 62
    18
420
        0
176
     1
 90
       50
176
     1
 90
        3
176
     1
 62
     5
420
      255
176
     1
290
     0
176
     1
 90
       50
176
     1
 90
       50
176
     1
 90
       50
176
     1
290
     0
176
     1
 90
       50
176
     1
 62
   256
176
     0
 40
1.0
176
     0
 90
        2
176
     1
  1
strokes_ogs.tif
176
     1
290
     0
176
     1
 40
1.0
176
     1
 40
1.0
176
     1
  0
VISUALSTYLE
  5
5C439
102
{ACAD_REACTORS
330
99
102
}
330
99
100
AcDbVisualStyle
  2
Shaded
 70
    27
177
     3
291
     0
 70
    58
 90
        2
176
     1
 90
        2
176
     1
 90
        1
176
     1
 90
        2
176
     1
 40
0.6
176
     1
 40
30.0
176
     1
 62
     7
420
 16777215
176
     1
 90
        0
176
     1
 90
        4
176
     1
 62
     7
176
     1
 62
   257
176
     1
 90
        1
176
     1
 90
        1
176
     1
 40
1.0
176
     1
 90
        8
176
     1
 62
   257
176
     1
 40
1.0
176
     1
 90
        1
176
     1
 90
        6
176
     1
 90
        2
176
     1
 62
     8
420
  7895160
176
     1
 90
        3
176
     1
 90
        0
176
     1
 90
        0
176
     1
290
     0
176
     1
 90
        5
176
     1
 40
0.0
176
     1
 90
        0
176
     1
290
     0
176
     1
290
     1
176
     1
290
     1
176
     1
290
     0
176
     1
290
     0
176
     1
290
     0
176
     1
290
     0
176
     1
290
     0
176
     1
290
     0
176
     1
 90
       50
176
     1
 40
0.0
176
     1
 40
1.0
176
     1
 90
        0
176
     1
 62
    18
420
        0
176
     1
 90
       50
176
     1
 90
        3
176
     1
 62
     5
420
      255
176
     1
290
     0
176
     1
 90
       50
176
     1
 90
       50
176
     1
 90
       50
176
     1
290
     0
176
     1
 90
       50
176
     1
 62
   256
176
     0
 40
1.0
176
     0
 90
        2
176
     1
  1
strokes_ogs.tif
176
     1
290
     0
176
     1
 40
1.0
176
     1
 40
1.0
176
     1
  0
VISUALSTYLE
  5
5C438
102
{ACAD_REACTORS
330
99
102
}
330
99
100
AcDbVisualStyle
  2
Shaded with edges
 70
    26
177
     3
291
     0
 70
    58
 90
        2
176
     1
 90
        2
176
     1
 90
        1
176
     1
 90
        2
176
     1
 40
0.6
176
     1
 40
30.0
176
     1
 62
     7
420
 16777215
176
     1
 90
        1
176
     1
 90
       10
176
     1
 62
     7
176
     1
 62
   257
176
     1
 90
        2
176
     1
 90
        1
176
     1
 40
1.0
176
     1
 90
        8
176
     1
 62
   257
176
     1
 40
1.0
176
     1
 90
        1
176
     1
 90
        6
176
     1
 90
        2
176
     1
 62
     7
176
     1
 90
        3
176
     1
 90
        0
176
     1
 90
        0
176
     1
290
     0
176
     1
 90
        5
176
     1
 40
0.0
176
     1
 90
        0
176
     1
290
     0
176
     1
290
     1
176
     1
290
     1
176
     1
290
     0
176
     1
290
     0
176
     1
290
     0
176
     1
290
     0
176
     1
290
     0
176
     1
290
     0
176
     1
 90
       50
176
     1
 40
0.0
176
     1
 40
1.0
176
     1
 90
        0
176
     1
 62
    18
420
        0
176
     1
 90
       50
176
     1
 90
        3
176
     1
 62
     5
420
      255
176
     1
290
     0
176
     1
 90
       50
176
     1
 90
       50
176
     1
 90
       50
176
     1
290
     0
176
     1
 90
       50
176
     1
 62
   256
176
     0
 40
1.0
176
     0
 90
        2
176
     1
  1
strokes_ogs.tif
176
     1
290
     0
176
     1
 40
1.0
176
     1
 40
1.0
176
     1
  0
VISUALSTYLE
  5
5C435
102
{ACAD_REACTORS
330
99
102
}
330
99
100
AcDbVisualStyle
  2
Shades of Gray
 70
    23
177
     3
291
     0
 70
    58
 90
        2
176
     1
 90
        2
176
     1
 90
        3
176
     1
 90
        0
176
     1
 40
0.6
176
     1
 40
30.0
176
     1
 62
     7
420
 16777215
176
     1
 90
        2
176
     1
 90
        2
176
     1
 62
     7
176
     1
 62
     7
176
     1
 90
        1
176
     1
 90
        1
176
     1
 40
40.0
176
     1
 90
        8
176
     1
 62
     7
176
     1
 40
1.0
176
     1
 90
        1
176
     1
 90
        6
176
     1
 90
        2
176
     1
 62
     7
176
     1
 90
        3
176
     1
 90
        0
176
     1
 90
        0
176
     1
290
     0
176
     1
 90
        1
176
     1
 40
0.0
176
     1
 90
        0
176
     1
290
     0
176
     1
290
     1
176
     1
290
     1
176
     1
290
     0
176
     1
290
     0
176
     1
290
     0
176
     1
290
     0
176
     1
290
     0
176
     1
290
     0
176
     1
 90
       50
176
     1
 40
0.0
176
     1
 40
1.0
176
     1
 90
        0
176
     1
 62
    18
420
        0
176
     1
 90
       50
176
     1
 90
        3
176
     1
 62
     5
420
      255
176
     1
290
     0
176
     1
 90
       50
176
     1
 90
       50
176
     1
 90
       50
176
     1
290
     0
176
     1
 90
       50
176
     1
 62
   256
176
     0
 40
1.0
176
     0
 90
        2
176
     1
  1
strokes_ogs.tif
176
     1
290
     0
176
     1
 40
1.0
176
     1
 40
1.0
176
     1
  0
VISUALSTYLE
  5
5C436
102
{ACAD_REACTORS
330
99
102
}
330
99
100
AcDbVisualStyle
  2
Sketchy
 70
    24
177
     3
291
     0
 70
    58
 90
        1
176
     1
 90
        2
176
     1
 90
        2
176
     1
 90
        0
176
     1
 40
0.6
176
     1
 40
30.0
176
     1
 62
     7
420
 16777215
176
     1
 90
        2
176
     1
 90
        2
176
     1
 62
     7
176
     1
 62
     7
176
     1
 90
        1
176
     1
 90
        1
176
     1
 40
40.0
176
     1
 90
       11
176
     1
 62
     7
176
     1
 40
1.0
176
     1
 90
        1
176
     1
 90
        6
176
     1
 90
        2
176
     1
 62
     7
176
     1
 90
        6
176
     1
 90
        0
176
     1
 90
        0
176
     1
290
     0
176
     1
 90
        1
176
     1
 40
0.0
176
     1
 90
        0
176
     1
290
     0
176
     1
290
     1
176
     1
290
     1
176
     1
290
     0
176
     1
290
     0
176
     1
290
     0
176
     1
290
     0
176
     1
290
     0
176
     1
290
     0
176
     1
 90
       50
176
     1
 40
0.0
176
     1
 40
1.0
176
     1
 90
        0
176
     1
 62
    18
420
        0
176
     1
 90
       50
176
     1
 90
        3
176
     1
 62
     5
420
      255
176
     1
290
     0
176
     1
 90
       50
176
     1
 90
       50
176
     1
 90
       50
176
     1
290
     0
176
     1
 90
       50
176
     1
 62
   256
176
     0
 40
1.0
176
     0
 90
        2
176
     1
  1
strokes_ogs.tif
176
     1
290
     0
176
     1
 40
1.0
176
     1
 40
1.0
176
     1
  0
VISUALSTYLE
  5
A6
102
{ACAD_REACTORS
330
99
102
}
330
99
100
AcDbVisualStyle
  2
Thicken
 70
    13
177
     3
291
     1
 70
    58
 90
        2
176
     1
 90
        2
176
     1
 90
        1
176
     1
 90
        0
176
     1
 40
0.6
176
     1
 40
30.0
176
     1
 62
     7
420
 16777215
176
     1
 90
        1
176
     1
 90
        4
176
     1
 62
     7
176
     1
 62
   257
176
     1
 90
        1
176
     1
 90
        1
176
     1
 40
1.0
176
     1
 90
       12
176
     1
 62
     7
176
     1
 40
1.0
176
     1
 90
        1
176
     1
 90
        6
176
     1
 90
        2
176
     1
 62
     7
176
     1
 90
        5
176
     1
 90
        0
176
     1
 90
        0
176
     1
290
     0
176
     1
 90
        1
176
     1
 40
0.0
176
     1
 90
        0
176
     1
290
     0
176
     1
290
     1
176
     1
290
     1
176
     1
290
     0
176
     1
290
     0
176
     1
290
     0
176
     1
290
     0
176
     1
290
     0
176
     1
290
     0
176
     1
 90
       50
176
     1
 40
0.0
176
     1
 40
1.0
176
     1
 90
        0
176
     1
 62
    18
420
        0
176
     1
 90
       50
176
     1
 90
        3
176
     1
 62
     5
420
      255
176
     1
290
     0
176
     1
 90
       50
176
     1
 90
       50
176
     1
 90
       50
176
     1
290
     0
176
     1
 90
       50
176
     1
 62
   256
176
     0
 40
1.0
176
     0
 90
        2
176
     1
  1
strokes_ogs.tif
176
     1
290
     0
176
     1
 40
1.0
176
     1
 40
1.0
176
     1
  0
VISUALSTYLE
  5
5C433
102
{ACAD_REACTORS
330
99
102
}
330
99
100
AcDbVisualStyle
  2
Wireframe
 70
     5
177
     3
291
     0
 70
    58
 90
        0
176
     1
 90
        2
176
     1
 90
        0
176
     1
 90
        0
176
     1
 40
0.6
176
     1
 40
30.0
176
     1
 62
     7
420
 16777215
176
     1
 90
        1
176
     1
 90
        4
176
     1
 62
     7
176
     1
 62
   257
176
     1
 90
        1
176
     1
 90
        1
176
     1
 40
1.0
176
     1
 90
        0
176
     1
 62
   257
176
     1
 40
1.0
176
     1
 90
        1
176
     1
 90
        6
176
     1
 90
        2
176
     1
 62
     7
176
     1
 90
        3
176
     1
 90
        0
176
     1
 90
        0
176
     1
290
     0
176
     1
 90
        1
176
     1
 40
0.0
176
     1
 90
        0
176
     1
290
     0
176
     1
290
     1
176
     1
290
     1
176
     1
290
     0
176
     1
290
     0
176
     1
290
     0
176
     1
290
     0
176
     1
290
     0
176
     1
290
     0
176
     1
 90
       50
176
     1
 40
0.0
176
     1
 40
1.0
176
     1
 90
        0
176
     1
 62
    18
420
        0
176
     1
 90
       50
176
     1
 90
        3
176
     1
 62
     5
420
      255
176
     1
290
     0
176
     1
 90
       50
176
     1
 90
       50
176
     1
 90
       50
176
     1
290
     0
176
     1
 90
       50
176
     1
 62
   256
176
     0
 40
1.0
176
     0
 90
        2
176
     1
  1
strokes_ogs.tif
176
     1
290
     0
176
     1
 40
1.0
176
     1
 40
1.0
176
     1
  0
VISUALSTYLE
  5
5C437
102
{ACAD_REACTORS
330
99
102
}
330
99
100
AcDbVisualStyle
  2
X-Ray
 70
    25
177
     3
291
     0
 70
    58
 90
        2
176
     1
 90
        2
176
     1
 90
        1
176
     1
 90
        1
176
     1
 40
0.5
176
     1
 40
30.0
176
     1
 62
     7
420
 16777215
176
     1
 90
        1
176
     1
 90
        0
176
     1
 62
     7
176
     1
 62
   257
176
     1
 90
        1
176
     1
 90
        1
176
     1
 40
1.0
176
     1
 90
        8
176
     1
 62
     7
176
     1
 40
1.0
176
     1
 90
        1
176
     1
 90
        6
176
     1
 90
        2
176
     1
 62
     7
176
     1
 90
        3
176
     1
 90
        0
176
     1
 90
        0
176
     1
290
     0
176
     1
 90
       13
176
     1
 40
0.0
176
     1
 90
        0
176
     1
290
     0
176
     1
290
     1
176
     1
290
     1
176
     1
290
     0
176
     1
290
     0
176
     1
290
     0
176
     1
290
     0
176
     1
290
     0
176
     1
290
     0
176
     1
 90
       50
176
     1
 40
0.0
176
     1
 40
1.0
176
     1
 90
        0
176
     1
 62
    18
420
        0
176
     1
 90
       50
176
     1
 90
        3
176
     1
 62
     5
420
      255
176
     1
290
     0
176
     1
 90
       50
176
     1
 90
       50
176
     1
 90
       50
176
     1
290
     0
176
     1
 90
       50
176
     1
 62
   256
176
     0
 40
1.0
176
     0
 90
        2
176
     1
  1
strokes_ogs.tif
176
     1
290
     0
176
     1
 40
1.0
176
     1
 40
1.0
176
     1
  0
DICTIONARY
  5
5C6BF
102
{ACAD_REACTORS
330
5C6BE
102
}
330
5C6BE
100
AcDbDictionary
280
     1
281
     1
  3
DefaultStandard
360
9C879
  3
Standards
360
5C6C0
  0
DICTIONARYVAR
  5
B5D
102
{ACAD_REACTORS
330
66
102
}
330
66
100
DictionaryVariables
280
     0
  1
1:1
  0
DICTIONARYVAR
  5
B5C
102
{ACAD_REACTORS
330
66
102
}
330
66
100
DictionaryVariables
280
     0
  1
STANDARD
  0
DICTIONARYVAR
  5
89
102
{ACAD_REACTORS
330
66
102
}
330
66
100
DictionaryVariables
280
     0
  1
STANDARD
  0
DICTIONARYVAR
  5
66F55
102
{ACAD_REACTORS
330
66
102
}
330
66
100
DictionaryVariables
280
     0
  1
Imperial24
  0
DICTIONARYVAR
  5
66F56
102
{ACAD_REACTORS
330
66
102
}
330
66
100
DictionaryVariables
280
     0
  1
Imperial24
  0
DICTIONARYVAR
  5
67
102
{ACAD_REACTORS
330
66
102
}
330
66
100
DictionaryVariables
280
     0
  1
2
  0
DICTIONARYVAR
  5
6B
102
{ACAD_REACTORS
330
66
102
}
330
66
100
DictionaryVariables
280
     0
  1
1
  0
DICTIONARYVAR
  5
9D9A7
102
{ACAD_REACTORS
330
66
102
}
330
66
100
DictionaryVariables
280
     0
  1
BYLAYER
  0
DICTIONARYVAR
  5
9D9A6
102
{ACAD_REACTORS
330
66
102
}
330
66
100
DictionaryVariables
280
     0
  1
ByLayer
  0
DICTIONARYVAR
  5
25751
102
{ACAD_REACTORS
330
66
102
}
330
66
100
DictionaryVariables
280
     0
  1
1
  0
DICTIONARYVAR
  5
25752
102
{ACAD_REACTORS
330
66
102
}
330
66
100
DictionaryVariables
280
     0
  1
15
  0
DICTIONARYVAR
  5
F79
102
{ACAD_REACTORS
330
66
102
}
330
66
100
DictionaryVariables
280
     0
  1
0
  0
DICTIONARYVAR
  5
F78
102
{ACAD_REACTORS
330
66
102
}
330
66
100
DictionaryVariables
280
     0
  1
0
  0
DICTIONARY
  5
A21DF
330
5C440
100
AcDbDictionary
280
     1
281
     1
  3
ACAD_XREC_ROUNDTRIP
360
AE6EF
  0
DICTIONARY
  5
66EB6
330
22
100
AcDbDictionary
280
     1
281
     1
  0
XRECORD
  5
A15E7
102
{ACAD_REACTORS
330
A15E6
102
}
330
A15E6
100
AcDbXrecord
280
     1
 70
     2
 71
     3
 72
     0
  0
DICTIONARY
  5
A21DD
330
5C43E
100
AcDbDictionary
280
     1
281
     1
  3
ACAD_XREC_ROUNDTRIP
360
AE6EE
  0
DICTIONARY
  5
B4E
330
87
100
AcDbDictionary
280
     1
281
     1
  3
ACAD_ROUNDTRIP_2008_TABLESTYLE_CELLSTYLEMAP
360
AE6ED
  0
XRECORD
  5
9C879
102
{ACAD_REACTORS
330
5C6BF
102
}
330
5C6BF
100
AcDbXrecord
280
     1
1000
AIA Version 3
  0
BINRECORD
  5
5C6C0
102
{ACAD_REACTORS
330
5C6BF
102
}
330
5C6BF
100
AcAecBinRecord
 90
        0
 91
    19403
 70
     0
310
0100FFFEFF0D4100490041002000560065007200730069006F006E00200033000500FFFF01001C004163416563556B4C6179657244657363726970746976654669656C64FFFEFF154400690073006300690070006C0069006E0065002000440065007300690067006E00610074006F0072000102000000007B333637354541
310
46100100002100000070BA406CD0EA76040B00FFFEFF001500FFFEFF01520002000000FFFEFF085200650073006F0075007200630065000700FFFEFF01410002000000FFFEFF165200650073006F00750072006300650020004100720063006800690074006500630074007500720061006C00000000000000FFFEFF014D00
310
02000000FFFEFF135200650073006F00750072006300650020004D0065006300680061006E006900630061006C00000000000000FFFEFF014B0002000000FFFEFF175200650073006F007500720063006500200028005500730065007200200044006500660069006E00650064002900000000000000FFFEFF014A00020000
310
00FFFEFF175200650073006F007500720063006500200028005500730065007200200044006500660069006E00650064002900000000000000FFFEFF01450002000000FFFEFF135200650073006F007500720063006500200045006C0065006300740072006900630061006C00000000000000FFFEFF01430002000000FFFE
310
FF0E5200650073006F007500720063006500200043006900760069006C00000000000000FFFEFF01530002000000FFFEFF135200650073006F00750072006300650020005300740072007500630074007500720061006C0000000000000000000000FFFEFF01410002000000FFFEFF0D410072006300680069007400650063
310
0074007500720061006C000A00FFFEFF01500002000000FFFEFF144100720063006800690074006500630074007500720061006C00200050006100760069006E006700000000000000FFFEFF014B0002000000FFFEFF1C4100720063006800690074006500630074007500720061006C002000280055007300650072002000
310
44006500660069006E00650064002900000000000000FFFEFF014A0002000000FFFEFF1C4100720063006800690074006500630074007500720061006C00200028005500730065007200200044006500660069006E00650064002900000000000000FFFEFF01490002000000FFFEFF16410072006300680069007400650063
310
0074007500720061006C00200049006E0074006500720069006F007200000000000000FFFEFF01470002000000FFFEFF164100720063006800690074006500630074007500720061006C00200047007200610070006800690063007300000000000000FFFEFF01460002000000FFFEFF164100720063006800690074006500
310
630074007500720061006C002000460069006E0069007300680065007300000000000000FFFEFF01450002000000FFFEFF164100720063006800690074006500630074007500720061006C00200045006C0065006D0065006E0074007300000000000000FFFEFF01440002000000FFFEFF1841007200630068006900740065
310
00630074007500720061006C002000440065006D006F006C006900740069006F006E00000000000000FFFEFF01540002000000FFFEFF1C4100720063006800690074006500630074007500720061006C0020005400720061006E00730070006F00720074006100740069006F006E00000000000000FFFEFF01530002000000
310
FFFEFF124100720063006800690074006500630074007500720061006C002000530069007400650000000000000001000000FFFEFF01510002000000FFFEFF09450071007500690070006D0065006E0074001100FFFEFF01410002000000FFFEFF124100740068006C0065007400690063002000450071007500690070006D
310
0065006E007400000000000000FFFEFF01520002000000FFFEFF10520065007400610069006C002000450071007500690070006D0065006E007400000000000000FFFEFF01500002000000FFFEFF155000610072006B0069006E00670020004C006F0074002000450071007500690070006D0065006E007400000000000000
310
FFFEFF014D0002000000FFFEFF154D00610069006E00740065006E0061006E00630065002000450071007500690070006D0065006E007400000000000000FFFEFF014C0002000000FFFEFF144C00610062006F007200610074006F00720079002000450071007500690070006D0065006E007400000000000000FFFEFF014B
310
0002000000FFFEFF18450071007500690070006D0065006E007400200028005500730065007200200044006500660069006E00650064002900000000000000FFFEFF014A0002000000FFFEFF18450071007500690070006D0065006E007400200028005500730065007200200044006500660069006E006500640029000000
310
00000000FFFEFF01480002000000FFFEFF1248006F00730070006900740061006C002000450071007500690070006D0065006E007400000000000000FFFEFF01590002000000FFFEFF12530065006300750072006900740079002000450071007500690070006D0065006E007400000000000000FFFEFF01460002000000FF
310
FEFF1646006F006F006400200053006500720076006900630065002000450071007500690070006D0065006E007400000000000000FFFEFF01450002000000FFFEFF1545006400750063006100740069006F006E0061006C002000450071007500690070006D0065006E007400000000000000FFFEFF01560002000000FFFE
310
FF1C56006900640065006F002F00500068006F0074006F0067007200610070006800690063002000450071007500690070006D0065006E007400000000000000FFFEFF01440002000000FFFEFF1344006500740065006E00740069006F006E002000450071007500690070006D0065006E007400000000000000FFFEFF0143
310
0002000000FFFEFF16440072007900200043006C00650061006E0069006E0067002000450071007500690070006D0065006E007400000000000000FFFEFF01540002000000FFFEFF145400680065006100740072006900630061006C002000450071007500690070006D0065006E007400000000000000FFFEFF0142000200
310
0000FFFEFF0E420061006E006B002000450071007500690070006D0065006E007400000000000000FFFEFF01530002000000FFFEFF0E53006900740065002000450071007500690070006D0065006E00740000000000000000000000FFFEFF01500002000000FFFEFF0850006C0075006D00620069006E0067000600FFFEFF
310
01510002000000FFFEFF1250006C0075006D00620069006E0067002000450071007500690070006D0065006E007400000000000000FFFEFF01500002000000FFFEFF0F50006C0075006D00620069006E006700200050006900700069006E006700000000000000FFFEFF014B0002000000FFFEFF1750006C0075006D006200
310
69006E006700200028005500730065007200200044006500660069006E00650064002900000000000000FFFEFF014A0002000000FFFEFF1750006C0075006D00620069006E006700200028005500730065007200200044006500660069006E00650064002900000000000000FFFEFF01440002000000FFFEFF1350006C0075
310
006D00620069006E0067002000440065006D006F006C006900740069006F006E00000000000000FFFEFF01530002000000FFFEFF0D50006C0075006D00620069006E0067002000530069007400650000000000000000000000FFFEFF014F0002000000FFFEFF0A4F007000650072006100740069006F006E0073000200FFFE
310
FF014B0002000000FFFEFF194F007000650072006100740069006F006E007300200028005500730065007200200044006500660069006E00650064002900000000000000FFFEFF014A0002000000FFFEFF194F007000650072006100740069006F006E007300200028005500730065007200200044006500660069006E0065
310
006400290000000000000000000000FFFEFF014D0002000000FFFEFF0A4D0065006300680061006E006900630061006C000700FFFEFF01500002000000FFFEFF114D0065006300680061006E006900630061006C00200050006900700069006E006700000000000000FFFEFF014B0002000000FFFEFF194D00650063006800
310
61006E006900630061006C00200028005500730065007200200044006500660069006E00650064002900000000000000FFFEFF014A0002000000FFFEFF194D0065006300680061006E006900630061006C00200028005500730065007200200044006500660069006E00650064002900000000000000FFFEFF014900020000
310
00FFFEFF1A4D0065006300680061006E006900630061006C00200049006E0073007400720075006D0065006E0074006100740069006F006E00000000000000FFFEFF01480002000000FFFEFF0F4D0065006300680061006E006900630061006C0020004800560041004300000000000000FFFEFF01440002000000FFFEFF15
310
4D0065006300680061006E006900630061006C002000440065006D006F006C006900740069006F006E00000000000000FFFEFF01530002000000FFFEFF0F4D0065006300680061006E006900630061006C002000530069007400650000000000000000000000FFFEFF014C0002000000FFFEFF094C0061006E006400730063
310
006100700065000500FFFEFF01500002000000FFFEFF124C0061006E00640073006300610070006500200050006C0061006E00740069006E006700000000000000FFFEFF014B0002000000FFFEFF184C0061006E00640073006300610070006500200028005500730065007200200044006500660069006E00650064002900
310
000000000000FFFEFF014A0002000000FFFEFF184C0061006E00640073006300610070006500200028005500730065007200200044006500660069006E00650064002900000000000000FFFEFF01490002000000FFFEFF144C0061006E006400730063006100700065002000490072007200690067006100740069006F006E
310
00000000000000FFFEFF01440002000000FFFEFF144C0061006E006400730063006100700065002000440065006D006F006C006900740069006F006E0000000000000000000000FFFEFF015A0002000000FFFEFF1A43006F006E00740072006100630074006F00720020002F002000530068006F0070002000440072006100
310
770069006E00670073000200FFFEFF014B0002000000FFFEFF2943006F006E00740072006100630074006F00720020002F002000530068006F0070002000440072006100770069006E0067007300200028005500730065007200200044006500660069006E00650064002900000000000000FFFEFF014A0002000000FFFEFF
310
2943006F006E00740072006100630074006F00720020002F002000530068006F0070002000440072006100770069006E0067007300200028005500730065007200200044006500660069006E0065006400290000000000000000000000FFFEFF01490002000000FFFEFF0949006E0074006500720069006F00720073000600
310
FFFEFF014E0002000000FFFEFF0F49006E0074006500720069006F0072002000440065007300690067006E00000000000000FFFEFF014B0002000000FFFEFF1849006E0074006500720069006F0072007300200028005500730065007200200044006500660069006E00650064002900000000000000FFFEFF014A00020000
310
00FFFEFF1849006E0074006500720069006F0072007300200028005500730065007200200044006500660069006E00650064002900000000000000FFFEFF01470002000000FFFEFF1249006E0074006500720069006F0072007300200047007200610070006800690063007300000000000000FFFEFF01460002000000FFFE
310
FF1149006E0074006500720069006F0072002000460069006E0069007300680065007300000000000000FFFEFF01440002000000FFFEFF1349006E0074006500720069006F0072002000440065006D006F006C006900740069006F006E0000000000000000000000FFFEFF01480002000000FFFEFF13480061007A00610072
310
0064006F007500730020004D006100740065007200690061006C0073000700FFFEFF01410002000000FFFEFF084100730062006500730074006F007300000000000000FFFEFF01520002000000FFFEFF0C5200650066007200690067006500720061006E0074007300000000000000FFFEFF01500002000000FFFEFF035000
310
43004200000000000000FFFEFF014C0002000000FFFEFF044C00650061006400000000000000FFFEFF014B0002000000FFFEFF22480061007A006100720064006F007500730020004D006100740065007200690061006C007300200028005500730065007200200044006500660069006E00650064002900000000000000FF
310
FEFF014A0002000000FFFEFF22480061007A006100720064006F007500730020004D006100740065007200690061006C007300200028005500730065007200200044006500660069006E00650064002900000000000000FFFEFF01430002000000FFFEFF094300680065006D006900630061006C0073000000000000000000
310
0000FFFEFF01580002000000FFFEFF114F00740068006500720020004400690073006300690070006C0069006E00650073000200FFFEFF014B0002000000FFFEFF204F00740068006500720020004400690073006300690070006C0069006E0065007300200028005500730065007200200044006500660069006E00650064
310
002900000000000000FFFEFF014A0002000000FFFEFF204F00740068006500720020004400690073006300690070006C0069006E0065007300200028005500730065007200200044006500660069006E0065006400290000000000000000000000FFFEFF01470002000000FFFEFF07470065006E006500720061006C000500
310
FFFEFF01520002000000FFFEFF10470065006E006500720061006C0020005200650073006F007500720063006500000000000000FFFEFF014B0002000000FFFEFF16470065006E006500720061006C00200028005500730065007200200044006500660069006E00650064002900000000000000FFFEFF014A0002000000FF
310
FEFF16470065006E006500720061006C00200028005500730065007200200044006500660069006E00650064002900000000000000FFFEFF01490002000000FFFEFF13470065006E006500720061006C00200049006E0066006F0072006D006100740069006F006E00000000000000FFFEFF01430002000000FFFEFF134700
310
65006E006500720061006C00200043006F006E0074007200610063007400750061006C0000000000000000000000FFFEFF01460002000000FFFEFF0F46006900720065002000500072006F00740065006300740069006F006E000400FFFEFF01410002000000FFFEFF18460069007200650020004400650074006500630074
310
0069006F006E00200061006E006400200041006C00610072006D00000000000000FFFEFF014B0002000000FFFEFF134600690072006500200028005500730065007200200044006500660069006E00650064002900000000000000FFFEFF014A0002000000FFFEFF1346006900720065002000280055007300650072002000
310
44006500660069006E00650064002900000000000000FFFEFF01530002000000FFFEFF10460069007200650020005300750070007000720065007300730069006F006E0000000000000000000000FFFEFF01570002000000FFFEFF0B43006900760069006C00200057006F0072006B0073000200FFFEFF014B0002000000FF
310
FEFF1A43006900760069006C00200057006F0072006B007300200028005500730065007200200044006500660069006E00650064002900000000000000FFFEFF014A0002000000FFFEFF1A43006900760069006C00200057006F0072006B007300200028005500730065007200200044006500660069006E00650064002900
310
00000000000000000000FFFEFF01450002000000FFFEFF0A45006C0065006300740072006900630061006C000900FFFEFF01500002000000FFFEFF1045006C0065006300740072006900630061006C00200050006F00770065007200000000000000FFFEFF014C0002000000FFFEFF1345006C006500630074007200690063
310
0061006C0020004C00690067006800740069006E006700000000000000FFFEFF014B0002000000FFFEFF1945006C0065006300740072006900630061006C00200028005500730065007200200044006500660069006E00650064002900000000000000FFFEFF014A0002000000FFFEFF1945006C0065006300740072006900
310
630061006C00200028005500730065007200200044006500660069006E00650064002900000000000000FFFEFF01490002000000FFFEFF1A45006C0065006300740072006900630061006C00200049006E0073007400720075006D0065006E0074006100740069006F006E00000000000000FFFEFF01590002000000FFFEFF
310
1C45006C0065006300740072006900630061006C00200041007500780069006C0069006100720079002000530079007300740065006D007300000000000000FFFEFF01440002000000FFFEFF1545006C0065006300740072006900630061006C002000440065006D006F006C006900740069006F006E00000000000000FFFE
310
FF01540002000000FFFEFF1D45006C0065006300740072006900630061006C002000540065006C00650063006F006D006D0075006E00690063006100740069006F006E007300000000000000FFFEFF01530002000000FFFEFF0F45006C0065006300740072006900630061006C002000530069007400650000000000000000
310
000000FFFEFF01560002000000FFFEFF1053007500720076006500790020002F0020004D0061007000700069006E0067000500FFFEFF01410002000000FFFEFF0D410065007200690061006C002000530075007200760065007900000000000000FFFEFF014B0002000000FFFEFF1F53007500720076006500790020002F00
310
20004D0061007000700069006E006700200028005500730065007200200044006500660069006E00650064002900000000000000FFFEFF014A0002000000FFFEFF1F53007500720076006500790020002F0020004D0061007000700069006E006700200028005500730065007200200044006500660069006E006500640029
310
00000000000000FFFEFF01490002000000FFFEFF0E4400690067006900740061006C002000530075007200760065007900000000000000FFFEFF01460002000000FFFEFF0C4600690065006C006400200053007500720076006500790000000000000000000000FFFEFF01440002000000FFFEFF07500072006F0063006500
310
730073000E00FFFEFF01410002000000FFFEFF0C500072006F00630065007300730020004100690072007300000000000000FFFEFF01520002000000FFFEFF19500072006F006300650073007300200044007200610069006E0073002000260020005200650063006C00610069006D007300000000000000FFFEFF01510002
310
000000FFFEFF11500072006F0063006500730073002000450071007500690070006D0065006E007400000000000000FFFEFF01500002000000FFFEFF0E500072006F006300650073007300200050006900700069006E006700000000000000FFFEFF014F0002000000FFFEFF0B500072006F00630065007300730020004F00
310
69006C00000000000000FFFEFF01470002000000FFFEFF0D500072006F006300650073007300200047006100730065007300000000000000FFFEFF01580002000000FFFEFF0F500072006F00630065007300730020004500780068006100750073007400000000000000FFFEFF01570002000000FFFEFF0E500072006F0063
310
006500730073002000570061007400650072007300000000000000FFFEFF01450002000000FFFEFF12500072006F006300650073007300200045006C0065006300740072006900630061006C00000000000000FFFEFF01560002000000FFFEFF0E500072006F0063006500730073002000560061006300750075006D000000
310
00000000FFFEFF01440002000000FFFEFF12500072006F0063006500730073002000440065006D006F006C006900740069006F006E00000000000000FFFEFF01430002000000FFFEFF11500072006F00630065007300730020004300680065006D006900630061006C007300000000000000FFFEFF01540002000000FFFEFF
310
18500072006F006300650073007300200045006E0074007200610069006E0065006400200053006F006C00690064007300000000000000FFFEFF01530002000000FFFEFF0C500072006F0063006500730073002000530069007400650000000000000000000000FFFEFF01540002000000FFFEFF12540065006C0065006300
310
6F006D006D0075006E00690063006100740069006F006E0073000900FFFEFF01410002000000FFFEFF0E41007500640069006F0020002F002000560069007300750061006C00000000000000FFFEFF014E0002000000FFFEFF0D440061007400610020004E006500740077006F0072006B007300000000000000FFFEFF014D
310
0002000000FFFEFF0A4D006F006E00690074006F00720069006E006700000000000000FFFEFF014B0002000000FFFEFF21540065006C00650063006F006D006D0075006E00690063006100740069006F006E007300200028005500730065007200200044006500660069006E00650064002900000000000000FFFEFF014A00
310
02000000FFFEFF21540065006C00650063006F006D006D0075006E00690063006100740069006F006E007300200028005500730065007200200044006500660069006E00650064002900000000000000FFFEFF01490002000000FFFEFF0849006E0074006500720063006F006D00000000000000FFFEFF01590002000000FF
310
FEFF0853006500630075007200690074007900000000000000FFFEFF01430002000000FFFEFF1143006C006F0063006B00200061006E0064002000500072006F006700720061006D00000000000000FFFEFF01540002000000FFFEFF09540065006C006500700068006F006E00650000000000000000000000FFFEFF014300
310
02000000FFFEFF0543006900760069006C000900FFFEFF01500002000000FFFEFF0C43006900760069006C00200050006100760069006E006700000000000000FFFEFF014B0002000000FFFEFF1443006900760069006C00200028005500730065007200200044006500660069006E00650064002900000000000000FFFEFF
310
014A0002000000FFFEFF1443006900760069006C00200028005500730065007200200044006500660069006E00650064002900000000000000FFFEFF01490002000000FFFEFF1243006900760069006C00200049006D00700072006F00760065006D0065006E0074007300000000000000FFFEFF01470002000000FFFEFF0D
310
43006900760069006C002000470072006100640069006E006700000000000000FFFEFF01550002000000FFFEFF0F43006900760069006C0020005500740069006C0069007400690065007300000000000000FFFEFF01440002000000FFFEFF1043006900760069006C002000440065006D006F006C006900740069006F006E
310
00000000000000FFFEFF01540002000000FFFEFF1443006900760069006C0020005400720061006E00730070006F00720074006100740069006F006E00000000000000FFFEFF01530002000000FFFEFF0A43006900760069006C002000530069007400650000000000000000000000FFFEFF01530002000000FFFEFF0A5300
310
740072007500630074007500720061006C000600FFFEFF014B0002000000FFFEFF195300740072007500630074007500720061006C00200028005500730065007200200044006500660069006E00650064002900000000000000FFFEFF014A0002000000FFFEFF195300740072007500630074007500720061006C00200028
310
005500730065007200200044006500660069006E00650064002900000000000000FFFEFF01460002000000FFFEFF125300740072007500630074007500720061006C0020004600720061006D0069006E006700000000000000FFFEFF01440002000000FFFEFF155300740072007500630074007500720061006C0020004400
310
65006D006F006C006900740069006F006E00000000000000FFFEFF01420002000000FFFEFF175300740072007500630074007500720061006C002000530075006200730074007200750063007400750072006500000000000000FFFEFF01530002000000FFFEFF0F5300740072007500630074007500720061006C00200053
310
0069007400650000000000000000000000FFFEFF01420002000000FFFEFF0C470065006F0074006500630068006E006900630061006C000200FFFEFF014B0002000000FFFEFF1B470065006F0074006500630068006E006900630061006C00200028005500730065007200200044006500660069006E006500640029000000
310
00000000FFFEFF014A0002000000FFFEFF1B470065006F0074006500630068006E006900630061006C00200028005500730065007200200044006500660069006E00650064002900000000000000000000000180FFFEFF054D0061006A006F0072000300000000000000000000000000000000000000000000000000000000
310
000000FFFEFF002300FFFEFF052D004400650074006C0002000000FFFEFF06440065007400610069006C00000000000000FFFEFF052D0043006C006E00670002000000FFFEFF074300650069006C0069006E006700000000000000FFFEFF052D0052006F006F00660002000000FFFEFF0452006F006F006600000000000000
310
FFFEFF052D00470072006900640002000000FFFEFF0A470072006900640020006C0069006E0065007300000000000000FFFEFF052D00460069007200650002000000FFFEFF1446006900720065002000700072006F00740065006300740069006F006E00200070006C0061006E00000000000000FFFEFF052D00500072006F
310
00740002000000FFFEFF1646006900720065002000700072006F00740065006300740069006F006E002000730079007300740065006D00000000000000FFFEFF052D0043006F006C00730002000000FFFEFF0743006F006C0075006D006E007300000000000000FFFEFF052D004300740072006C0002000000FFFEFF0E4300
310
6F006E00740072006F006C00200050006F0069006E0074007300000000000000FFFEFF052D004500710070006D0002000000FFFEFF09450071007500690070006D0065006E007400000000000000FFFEFF052D00570061006C006C0002000000FFFEFF05570061006C006C007300000000000000FFFEFF052D00500072006F
310
00700002000000FFFEFF08500072006F0070006500720074007900000000000000FFFEFF052D00530065006300740002000000FFFEFF07530065006300740069006F006E00000000000000FFFEFF052D0050006F006C00790002000000FFFEFF0850006F006C00790067006F006E007300000000000000FFFEFF052D004C00
310
69007400650002000000FFFEFF114C00690067006800740069006E006700200066006900780074007500720065007300000000000000FFFEFF052D00410063006300730002000000FFFEFF0B410063006300650073007300200070006C0061006E00000000000000FFFEFF052D00480056004100430002000000FFFEFF0448
310
00560041004300000000000000FFFEFF052D0045006C006500630002000000FFFEFF0A45006C0065006300740072006900630061006C00000000000000FFFEFF052D0054006F0070006F0002000000FFFEFF0A54006F0070006F00670072006100700068007900000000000000FFFEFF052D0043006F006400650002000000
310
FFFEFF1443006F0064006500200063006F006D0070006C00690061006E0063006500200070006C0061006E00000000000000FFFEFF052D0047006C0061007A0002000000FFFEFF0747006C0061007A0069006E006700000000000000FFFEFF052D00540069006E006E0002000000FFFEFF1E54007200690061006E00670075
310
006C00610074006500640020006900720072006500670075006C006100720020006E006500740077006F0072006B00000000000000FFFEFF052D0050006C0061006E0002000000FFFEFF154B0065007900200070006C0061006E002000280066006C006F006F007200200070006C0061006E002900000000000000FFFEFF05
310
2D0046006C006F00720002000000FFFEFF0546006C006F006F007200000000000000FFFEFF052D004600750072006E0002000000FFFEFF0B4600750072006E0069007300680069006E0067007300000000000000FFFEFF052D004200650061006D0002000000FFFEFF054200650061006D007300000000000000FFFEFF052D
310
0044006F006F00720002000000FFFEFF0544006F006F0072007300000000000000FFFEFF052D0041006E006E006F0002000000FFFEFF0A41006E006E006F0074006100740069006F006E00000000000000FFFEFF052D00450076006100630002000000FFFEFF0F450076006100630075006100740069006F006E0020007000
310
6C0061006E00000000000000FFFEFF052D00530069007400650002000000FFFEFF095300690074006500200070006C0061006E00000000000000FFFEFF052D0043006F006E00760002000000FFFEFF1143006F006E0076006500790069006E0067002000730079007300740065006D007300000000000000FFFEFF052D0053
310
006C006100620002000000FFFEFF0553006C00610062007300000000000000FFFEFF052D0043006F006D006D0002000000FFFEFF12540065006C00650063006F006D006D0075006E00690063006100740069006F006E007300000000000000FFFEFF052D005300740072006D0002000000FFFEFF0844007200610069006E00
310
610067006500000000000000FFFEFF052D00410072006500610002000000FFFEFF044100720065006100000000000000FFFEFF052D0045006C006500760002000000FFFEFF0945006C00650076006100740069006F006E000000000000000180FFFEFF074D0069006E006F00720020003100040000000000000000F00E7704
310
00000000000000000000000000000000F00000FFFEFF006A00FFFEFF052D004F00700065006E0002000000FFFEFF084F00700065006E0069006E0067007300000000000000FFFEFF052D005300690067006E0002000000FFFEFF055300690067006E007300000000000000FFFEFF052D0043006C006E00670002000000FFFE
310
FF074300650069006C0069006E006700000000000000FFFEFF052D00570069006400650002000000FFFEFF19570069006400650020007700650069006700680074002000670072006100700068006900630020006C0069006E0065007300000000000000FFFEFF052D00530044004600460002000000FFFEFF105300750070
310
0070006C0079002000640069006600660075007300650072007300000000000000FFFEFF052D004D0063007500740002000000FFFEFF164D00610069006E00200063007500740020006C0069006E006500200065006C0065006D0065006E0074007300000000000000FFFEFF052D00470072006900640002000000FFFEFF04
310
4700720069006400000000000000FFFEFF052D00460069007200650002000000FFFEFF0A46006900720065002000770061006C006C007300000000000000FFFEFF052D00410062006F00760002000000FFFEFF0E45006C0065006D0065006E00740073002000610062006F0076006500000000000000FFFEFF052D00500072
310
006F00660002000000FFFEFF08500072006F00660069006C0065007300000000000000FFFEFF052D00530079006D00620002000000FFFEFF07530079006D0062006F006C007300000000000000FFFEFF052D00480065007600790002000000FFFEFF1A48006500610076007900200077006500690067006800740020006700
310
72006100700068006900630020006C0069006E0065007300000000000000FFFEFF052D00430061007600690002000000FFFEFF06430061007600690074007900000000000000FFFEFF052D005500740069006C0002000000FFFEFF095500740069006C0069007400690065007300000000000000FFFEFF052D004E006F0074
310
00650002000000FFFEFF054E006F00740065007300000000000000FFFEFF052D00530065006100740002000000FFFEFF07530065006100740069006E006700000000000000FFFEFF052D00460072006500650002000000FFFEFF0C46007200650065007300740061006E00640069006E006700000000000000FFFEFF052D00
310
460061007300630002000000FFFEFF074600610073006300690061007300000000000000FFFEFF052D00500072006800740002000000FFFEFF0E5000610072007400690061006C002000680065006900670068007400000000000000FFFEFF052D004D00610072006B0002000000FFFEFF1D4D00610072006B006500720073
310
002C00200062007200650061006B0020006D00610072006B0073002C0020006C00650061006400650072007300000000000000FFFEFF052D00530070006300650002000000FFFEFF0553007000610063006500000000000000FFFEFF052D004900640065006E0002000000FFFEFF134900640065006E007400690066006900
310
63006100740069006F006E0020005400610067007300000000000000FFFEFF052D0057006B007300660002000000FFFEFF1E530079007300740065006D00200077006F0072006B0020007300750072006600610063006500200063006F006D0070006F006E0065006E0074007300000000000000FFFEFF052D005200610069
310
00730002000000FFFEFF06520061006900730065006400000000000000FFFEFF052D004A0061006D00620002000000FFFEFF1544006F006F007200200061006E0064002000770069006E0064006F00770020006A0061006D0062007300000000000000FFFEFF052D00450076007400720002000000FFFEFF1B45006C006500
310
7600610074006F00720020006300610072007300200061006E0064002000650071007500690070006D0065006E007400000000000000FFFEFF052D00540065007800740002000000FFFEFF045400650078007400000000000000FFFEFF052D004500710070006D0002000000FFFEFF09450071007500690070006D0065006E
310
007400000000000000FFFEFF052D00570061006C006C0002000000FFFEFF05570061006C006C007300000000000000FFFEFF052D00460069006C00650002000000FFFEFF0D460069006C006500200063006100620069006E00650074007300000000000000FFFEFF052D004100730073006D0002000000FFFEFF0A41007300
310
730065006D0062006C00690065007300000000000000FFFEFF052D0046006E007300680002000000FFFEFF08460069006E0069007300680065007300000000000000FFFEFF052D004D00610073006B0002000000FFFEFF1241004400540020004D00610073006B0069006E00670020004F0062006A00650063007400000000
310
000000FFFEFF052D005400690074006C0002000000FFFEFF18440072006100770069006E00670020006F0072002000640065007400610069006C0020007400690074006C0065007300000000000000FFFEFF052D004C0069007400650002000000FFFEFF084C00690067006800740069006E006700000000000000FFFEFF05
310
2D00410063006300730002000000FFFEFF06410063006300650073007300000000000000FFFEFF052D004C00610062006C0002000000FFFEFF064C006100620065006C007300000000000000FFFEFF052D00520065006600720002000000FFFEFF195200650066006500720065006E00630065002C00200065007800740065
310
0072006E0061006C002000660069006C0065007300000000000000FFFEFF052D004D00650064006D0002000000FFFEFF1B4D0065006400690075006D0020007700650069006700680074002000670072006100700068006900630020006C0069006E0065007300000000000000FFFEFF052D00530074007200730002000000
310
FFFEFF215300740061006900720020007400720065006100640073002C00200065007300630061006C00610074006F00720073002C0020006C00610064006400650072007300000000000000FFFEFF052D00430075007200740002000000FFFEFF0C4300750072007400610069006E002000570061006C006C000000000000
310
00FFFEFF052D00440065006D006F0002000000FFFEFF0A440065006D006F006C006900740069006F006E00000000000000FFFEFF052D00560069006500770002000000FFFEFF13560069006500770070006F0072007400200044006500660069006E006900740069006F006E00000000000000FFFEFF052D00440069006D00
310
730002000000FFFEFF0A440069006D0065006E00730069006F006E007300000000000000FFFEFF052D0053006C006300650002000000FFFEFF0653006C006900630065007300000000000000FFFEFF052D0043006F006E006E0002000000FFFEFF0B43006F006E006E0065006300740069006F006E007300000000000000FF
310
FEFF052D0042006C006F00770002000000FFFEFF0E45006C0065006D0065006E00740073002000620065006C006F007700000000000000FFFEFF052D00460069006E00650002000000FFFEFF19460069006E00650020007700650069006700680074002000670072006100700068006900630020006C0069006E0065007300
310
000000000000FFFEFF052D00530075007300700002000000FFFEFF12530075007300700065006E00640065006400200065006C0065006D0065006E0074007300000000000000FFFEFF052D004C00650076006C0002000000FFFEFF274C006500760065006C0020006300680061006E006700650073002C002000720061006D
310
00700073002C00200070006900740073002C002000640065007000720065007300730069006F006E007300000000000000FFFEFF052D00460069007800640002000000FFFEFF0F460069007800650064002000650071007500690070006D0065006E007400000000000000FFFEFF052D004F0063006300700002000000FFFE
310
FF1A4F00630063007500700061006E00740020006F007200200065006D0070006C006F0079006500650020006E0061006D0065007300000000000000FFFEFF052D00480069006400650002000000FFFEFF0E480069006400640065006E0020006F0062006A006500630074007300000000000000FFFEFF052D004100640074
310
00760002000000FFFEFF1141006400640069007400690076006500200065006C0065006D0065006E0074007300000000000000FFFEFF052D00520064006D00650002000000FFFEFF1B52006500610064002D006D00650020006C006100790065007200200028006E006F007400200070006C006F0074007400650064002900
310
000000000000FFFEFF052D005300630072006E0002000000FFFEFF14530063007200650065006E006500640020004200610063006B00670072006F0075006E0064007300000000000000FFFEFF052D00460069007800740002000000FFFEFF1170006C0075006D00620069006E006700200066006900780074007500720065
310
007300000000000000FFFEFF052D004C00650067006E0002000000FFFEFF144C006500670065006E00640073002C002000530079006D0062006F006C0020006B00650079007300000000000000FFFEFF052D0043006E007400720002000000FFFEFF0A430065006E007400650072006C0069006E006500000000000000FFFE
310
FF052D00420064007200790002000000FFFEFF0842006F0075006E006400610072007900000000000000FFFEFF052D0050006F007700720002000000FFFEFF0550006F00770065007200000000000000FFFEFF052D00470072007000730002000000FFFEFF06470072006F00750070007300000000000000FFFEFF052D004B
310
00650079006E0002000000FFFEFF084B00650079006E006F00740065007300000000000000FFFEFF052D00420072006300650002000000FFFEFF06420072006100630065007300000000000000FFFEFF052D005300700063006C0002000000FFFEFF0B5300700065006300690061006C007400690065007300000000000000
310
FFFEFF052D004F0074006C006E0002000000FFFEFF074F00750074006C0069006E006500000000000000FFFEFF052D005400700074006E0002000000FFFEFF1154006F0069006C0065007400200070006100720074006900740069006F006E007300000000000000FFFEFF052D005200650066006C0002000000FFFEFF0E52
310
00650066006C0065006300740065006400200050006C0061006E00000000000000FFFEFF052D005400680069006E0002000000FFFEFF195400680069006E0020007700650069006700680074002000670072006100700068006900630020006C0069006E0065007300000000000000FFFEFF052D005000650070006C000200
310
0000FFFEFF06500065006F0070006C006500000000000000FFFEFF052D004F0076006800640002000000FFFEFF084F007600650072006800650061006400000000000000FFFEFF052D004800720061006C0002000000FFFEFF16480061006E0064007200610069006C0073002C002000670075006100720064002000720061
310
0069006C007300000000000000FFFEFF052D004D0061007400630002000000FFFEFF0B4D00610074006300680020006C0069006E0065007300000000000000FFFEFF052D00520044004600460002000000FFFEFF14520065007400750072006E00200061006900720020006400690066006600750073006500720073000000
310
00000000FFFEFF052D00540074006C00620002000000FFFEFF1642006F007200640065007200200061006E00640020007400690074006C006500200062006C006F0063006B00000000000000FFFEFF052D00530077006300680002000000FFFEFF0853007700690074006300680065007300000000000000FFFEFF052D0041
310
00700070006C0002000000FFFEFF0A4100700070006C00690061006E00630065007300000000000000FFFEFF052D00540065006500730002000000FFFEFF094D00610069006E0020007400650065007300000000000000FFFEFF052D005700640077006B0002000000FFFEFF16410072006300680069007400650063007400
310
7500720061006C00200077006F006F00640077006F0072006B00000000000000FFFEFF052D004C0069006E00650002000000FFFEFF0D44006500660069006E0069006E00670020004C0069006E006500000000000000FFFEFF052D004D0061007300730002000000FFFEFF104D0061007300730069006E006700200045006C
310
0065006D0065006E0074007300000000000000FFFEFF052D005400610062006C0002000000FFFEFF0B440061007400610020007400610062006C0065007300000000000000FFFEFF052D00540068006C00640002000000FFFEFF0A5400680072006500730068006F006C0064007300000000000000FFFEFF052D0053006300
310
6800640002000000FFFEFF095300630068006500640075006C0065007300000000000000FFFEFF052D00460075006C006C0002000000FFFEFF0B460075006C006C002D00680065006900670068007400000000000000FFFEFF052D00480065006100640002000000FFFEFF1744006F006F007200200061006E006400200077
310
0069006E0064006F00770020006800650061006400650072007300000000000000FFFEFF052D004D006F007600650002000000FFFEFF124D006F0076006500610062006C0065002000650071007500690070006D0065006E007400000000000000FFFEFF052D00420072006E00670002000000FFFEFF1A4200650061007200
310
69006E0067007300200026002000640069007300740061006E006300650020006C006100620065006C007300000000000000FFFEFF052D0043006F006D00700002000000FFFEFF1349006E007400650072006E0061006C00200063006F006D0070006F006E0065006E0074007300000000000000FFFEFF052D00530074006F
310
00720002000000FFFEFF19530079007300740065006D002000730074006F007200610067006500200063006F006D0070006F006E0065006E0074007300000000000000FFFEFF052D0050006B006E00670002000000FFFEFF075000610072006B0069006E006700000000000000FFFEFF052D004E00690063006E0002000000
310
FFFEFF0F4E006F007400200069006E00200063006F006E0074007200610063007400000000000000FFFEFF052D00430068006100730002000000FFFEFF0543006800610073006500000000000000FFFEFF052D004E0070006C00740002000000FFFEFF204E006F006E002D0070006C006F007400740069006E006700200067
310
00720061007000680069006300200069006E0066006F0072006D006100740069006F006E00000000000000FFFEFF052D005600680063006C0002000000FFFEFF08560065006800690063006C0065007300000000000000FFFEFF052D00520065007600730002000000FFFEFF095200650076006900730069006F006E007300
310
000000000000FFFEFF052D00500061007400740002000000FFFEFF19540065007800740075007200650020006F00720020006800610074006300680020007000610074007400650072006E007300000000000000FFFEFF052D0053006C006100620002000000FFFEFF0553006C00610062007300000000000000FFFEFF052D
310
0043006F006D006D0002000000FFFEFF1A540065006C006500700068006F006E0065002C00200063006F006D006D0075006E00690063006100740069006F006E0073002000000000000000FFFEFF052D00430061007300650002000000FFFEFF08430061007300650077006F0072006B00000000000000FFFEFF052D005200
310
65007600630002000000FFFEFF0F5200650076006900730069006F006E00200063006C006F00750064007300000000000000FFFEFF052D0050006C006E00740002000000FFFEFF0650006C0061006E0074007300000000000000FFFEFF052D00530075006200740002000000FFFEFF14530075006200740072006100630074
310
00690076006500200065006C0065006D0065006E0074007300000000000000FFFEFF052D0050006E006C00730002000000FFFEFF0D530079007300740065006D002000700061006E0065006C007300000000000000FFFEFF052D00520069007300720002000000FFFEFF0C5300740061006900720020007200690073006500
310
72007300000000000000FFFEFF052D00530069006C006C0002000000FFFEFF0C570069006E0064006F0077002000730069006C006C0073000000000000000180FFFEFF074D0069006E006F0072002000320005000000004164642062656C6F77207468652073656C6563746564206974656DFFFEFF001600FFFEFF052D0041
310
0062006F00760002000000FFFEFF0E45006C0065006D0065006E00740073002000610062006F0076006500000000000000FFFEFF052D004E006F007400650002000000FFFEFF16470065006E006500720061006C0020005400650078007400200061006E00640020004E006F00740065007300000000000000FFFEFF052D00
310
460061007300630002000000FFFEFF06460061007300630069006100000000000000FFFEFF052D004900640065006E0002000000FFFEFF0A4900640065006E00740069006600690065007200000000000000FFFEFF052D0055006E006900740002000000FFFEFF0455006E0069007400000000000000FFFEFF052D00540069
310
0074006C0002000000FFFEFF065400690074006C0065007300000000000000FFFEFF052D00440069006D00730002000000FFFEFF0A440069006D0065006E00730069006F006E007300000000000000FFFEFF052D0053006C006300650002000000FFFEFF0653006C006900630065007300000000000000FFFEFF052D004700
310
6C0061007A0002000000FFFEFF0747006C0061007A0069006E006700000000000000FFFEFF052D00480069006400650002000000FFFEFF0F480069006400640065006E00200065006C0065006D0065006E0074007300000000000000FFFEFF052D00420064007200790002000000FFFEFF0D4500640067006500200062006F
310
0075006E006400610072007900000000000000FFFEFF052D00470072007000730002000000FFFEFF06470072006F00750070007300000000000000FFFEFF052D004F0074006C006E0002000000FFFEFF074F00750074006C0069006E006500000000000000FFFEFF052D005200650066006C0002000000FFFEFF0F52006500
310
66006C0065006300740065006400200050006C0061006E007300000000000000FFFEFF052D005400680069006E0002000000FFFEFF0E4D0069006E006F00720020006C0069006E00650077006F0072006B00000000000000FFFEFF052D004C0069006E00650002000000FFFEFF10470065006E006500720061006C0020006C
310
0069006E00650077006F0072006B00000000000000FFFEFF052D004E0070006C00740002000000FFFEFF154E006F006E002D0070006C006F007400740069006E006700200065006C0065006D0065006E0074007300000000000000FFFEFF052D00530066006900740002000000FFFEFF0653006F0066006600690074000000
310
00000000FFFEFF052D00500061007400740002000000FFFEFF0E4800610074006300680020007000610074007400650072006E007300000000000000FFFEFF052D005300630061006C0002000000FFFEFF10470072006100700068006900630061006C0020005300630061006C0065007300000000000000FFFEFF052D0052
310
0069007300720002000000FFFEFF06520069007300650072007300000000000000FFFEFF052D00530069006C006C0002000000FFFEFF05530069006C006C0073000000000000000180FFFEFF06530074006100740075007300060000000000000000A434770470040000B10000005073770400000000050000FFFEFF000F00
310
FFFEFF022D00540002000000FFFEFF0E540065006D0070006F007200610072007900200077006F0072006B00000000000000FFFEFF022D00450002000000FFFEFF124500780069007300740069006E006700200074006F002000720065006D00610069006E00000000000000FFFEFF022D00380002000000FFFEFF07500068
310
0061007300650020003800000000000000FFFEFF022D00390002000000FFFEFF075000680061007300650020003900000000000000FFFEFF022D00360002000000FFFEFF075000680061007300650020003600000000000000FFFEFF022D00370002000000FFFEFF075000680061007300650020003700000000000000FFFE
310
FF022D004E0002000000FFFEFF084E0065007700200077006F0072006B00000000000000FFFEFF022D00340002000000FFFEFF075000680061007300650020003400000000000000FFFEFF022D00350002000000FFFEFF075000680061007300650020003500000000000000FFFEFF022D00320002000000FFFEFF07500068
310
0061007300650020003200000000000000FFFEFF022D004D0002000000FFFEFF114900740065006D007300200074006F0020006200650020006D006F00760065006400000000000000FFFEFF022D00330002000000FFFEFF075000680061007300650020003300000000000000FFFEFF022D00310002000000FFFEFF075000
310
680061007300650020003100000000000000FFFEFF022D00460002000000FFFEFF0B460075007400750072006500200077006F0072006B00000000000000FFFEFF022D00440002000000FFFEFF144500780069007300740069006E006700200074006F002000640065006D006F006C006900730068000000000000000600FF
310
FF04001A004163416563556B4C61796572436F6D706F6E656E744669656C64FFFEFF174400690073006300690070006C0069006E0065002000440065007300690067006E00610074006F0072002000310001000000FFFEFF0440002C0040004000000000000100000000FFFEFF014100000000000780FFFEFF174400690073
310
006300690070006C0069006E0065002000440065007300690067006E00610074006F0072002000320001000000FFFEFF0440002C0040004000010000000100000000FFFEFF014400000000000780FFFEFF054D0061006A006F00720005000000FFFEFF052D00400040004000400000000000010000002DFFFEFF052D005700
310
61006C006C00000000000780FFFEFF064D0069006E006F007200310005000000FFFEFF022D002A0001000000010000002DFFFEFF052D004900640065006E00000000000780FFFEFF064D0069006E006F007200320005000000FFFEFF022D002A0001000000010000002DFFFEFF052D005400650078007400000000000780FF
310
FEFF0653007400610074007500730002000000FFFEFF022D002A0001000000010000002DFFFEFF022D004E0000000000050000010203040500FFFEFF00FFFEFF0320002D002000FFFEFF022C002000FFFEFF012000FFFEFF0320002D002000FFFEFF00
  0
XRECORD
  5
AE6EF
102
{ACAD_REACTORS
330
A21DF
102
}
330
A21DF
100
AcDbXrecord
280
     1
102
DISPLAYNAME
  1
Imperial24
102
FLAGS
 90
        0
  0
XRECORD
  5
AE6EE
102
{ACAD_REACTORS
330
A21DD
102
}
330
A21DD
100
AcDbXrecord
280
     1
102
DISPLAYNAME
  1
Imperial24
102
FLAGS
 90
        0
  0
CELLSTYLEMAP
  5
AE6ED
102
{ACAD_REACTORS
330
B4E
102
}
330
B4E
100
AcDbCellStyleMap
 90
        3
300
CELLSTYLE
  1
TABLEFORMAT_BEGIN
 90
        5
170
     1
 91
        0
 92
    32768
 62
   257
 93
        1
300
CONTENTFORMAT
  1
CONTENTFORMAT_BEGIN
 90
        0
 91
        0
 92
      512
 93
        0
300

 40
0.0
140
1.0
 94
        5
 62
     0
340
11
144
0.25
309
CONTENTFORMAT_END
171
     1
301
MARGIN
  1
CELLMARGIN_BEGIN
 40
0.06
 40
0.06
 40
0.06
 40
0.06
 40
0.18
 40
0.18
309
CELLMARGIN_END
 94
        6
 95
        1
302
GRIDFORMAT
  1
GRIDFORMAT_BEGIN
 90
        0
 91
        1
 62
     0
 92
       -2
340
0
 93
        0
 40
0.045
309
GRIDFORMAT_END
 95
        2
302
GRIDFORMAT
  1
GRIDFORMAT_BEGIN
 90
        0
 91
        1
 62
     0
 92
       -2
340
0
 93
        0
 40
0.045
309
GRIDFORMAT_END
 95
        4
302
GRIDFORMAT
  1
GRIDFORMAT_BEGIN
 90
        0
 91
        1
 62
     0
 92
       -2
340
0
 93
        0
 40
0.045
309
GRIDFORMAT_END
 95
        8
302
GRIDFORMAT
  1
GRIDFORMAT_BEGIN
 90
        0
 91
        1
 62
     0
 92
       -2
340
0
 93
        0
 40
0.045
309
GRIDFORMAT_END
 95
       16
302
GRIDFORMAT
  1
GRIDFORMAT_BEGIN
 90
        0
 91
        1
 62
     0
 92
       -2
340
0
 93
        0
 40
0.045
309
GRIDFORMAT_END
 95
       32
302
GRIDFORMAT
  1
GRIDFORMAT_BEGIN
 90
        0
 91
        1
 62
     0
 92
       -2
340
0
 93
        0
 40
0.045
309
GRIDFORMAT_END
309
TABLEFORMAT_END
  1
CELLSTYLE_BEGIN
 90
        1
 91
        1
300
_TITLE
309
CELLSTYLE_END
300
CELLSTYLE
  1
TABLEFORMAT_BEGIN
 90
        5
170
     1
 91
        0
 92
        0
 62
   257
 93
        1
300
CONTENTFORMAT
  1
CONTENTFORMAT_BEGIN
 90
        0
 91
        0
 92
      512
 93
        0
300

 40
0.0
140
1.0
 94
        5
 62
     0
340
11
144
0.18
309
CONTENTFORMAT_END
171
     1
301
MARGIN
  1
CELLMARGIN_BEGIN
 40
0.06
 40
0.06
 40
0.06
 40
0.06
 40
0.18
 40
0.18
309
CELLMARGIN_END
 94
        6
 95
        1
302
GRIDFORMAT
  1
GRIDFORMAT_BEGIN
 90
        0
 91
        1
 62
     0
 92
       -2
340
0
 93
        0
 40
0.045
309
GRIDFORMAT_END
 95
        2
302
GRIDFORMAT
  1
GRIDFORMAT_BEGIN
 90
        0
 91
        1
 62
     0
 92
       -2
340
0
 93
        0
 40
0.045
309
GRIDFORMAT_END
 95
        4
302
GRIDFORMAT
  1
GRIDFORMAT_BEGIN
 90
        0
 91
        1
 62
     0
 92
       -2
340
0
 93
        0
 40
0.045
309
GRIDFORMAT_END
 95
        8
302
GRIDFORMAT
  1
GRIDFORMAT_BEGIN
 90
        0
 91
        1
 62
     0
 92
       -2
340
0
 93
        0
 40
0.045
309
GRIDFORMAT_END
 95
       16
302
GRIDFORMAT
  1
GRIDFORMAT_BEGIN
 90
        0
 91
        1
 62
     0
 92
       -2
340
0
 93
        0
 40
0.045
309
GRIDFORMAT_END
 95
       32
302
GRIDFORMAT
  1
GRIDFORMAT_BEGIN
 90
        0
 91
        1
 62
     0
 92
       -2
340
0
 93
        0
 40
0.045
309
GRIDFORMAT_END
309
TABLEFORMAT_END
  1
CELLSTYLE_BEGIN
 90
        2
 91
        1
300
_HEADER
309
CELLSTYLE_END
300
CELLSTYLE
  1
TABLEFORMAT_BEGIN
 90
        5
170
     1
 91
        0
 92
        0
 62
   257
 93
        1
300
CONTENTFORMAT
  1
CONTENTFORMAT_BEGIN
 90
        0
 91
        0
 92
      512
 93
        0
300

 40
0.0
140
1.0
 94
        2
 62
     0
340
11
144
0.18
309
CONTENTFORMAT_END
171
     1
301
MARGIN
  1
CELLMARGIN_BEGIN
 40
0.06
 40
0.06
 40
0.06
 40
0.06
 40
0.18
 40
0.18
309
CELLMARGIN_END
 94
        6
 95
        1
302
GRIDFORMAT
  1
GRIDFORMAT_BEGIN
 90
        0
 91
        1
 62
     0
 92
       -2
340
0
 93
        0
 40
0.045
309
GRIDFORMAT_END
 95
        2
302
GRIDFORMAT
  1
GRIDFORMAT_BEGIN
 90
        0
 91
        1
 62
     0
 92
       -2
340
0
 93
        0
 40
0.045
309
GRIDFORMAT_END
 95
        4
302
GRIDFORMAT
  1
GRIDFORMAT_BEGIN
 90
        0
 91
        1
 62
     0
 92
       -2
340
0
 93
        0
 40
0.045
309
GRIDFORMAT_END
 95
        8
302
GRIDFORMAT
  1
GRIDFORMAT_BEGIN
 90
        0
 91
        1
 62
     0
 92
       -2
340
0
 93
        0
 40
0.045
309
GRIDFORMAT_END
 95
       16
302
GRIDFORMAT
  1
GRIDFORMAT_BEGIN
 90
        0
 91
        1
 62
     0
 92
       -2
340
0
 93
        0
 40
0.045
309
GRIDFORMAT_END
 95
       32
302
GRIDFORMAT
  1
GRIDFORMAT_BEGIN
 90
        0
 91
        1
 62
     0
 92
       -2
340
0
 93
        0
 40
0.045
309
GRIDFORMAT_END
309
TABLEFORMAT_END
  1
CELLSTYLE_BEGIN
 90
        3
 91
        2
300
_DATA
309
CELLSTYLE_END
  0
ENDSEC
  0
SECTION
  2
ACDSDATA
 70
     2
 71
     8
  0
ACDSSCHEMA
 90
        0
  1
AcDb_Thumbnail_Schema
  2
AcDbDs::ID
280
    10
 91
        8
  2
Thumbnail_Data
280
    15
 91
        0
101
ACDSRECORD
 95
        0
 90
        1
  2
AcDbDs::TreatedAsObjectData
280
     1
291
     1
101
ACDSRECORD
 95
        0
 90
        2
  2
AcDbDs::Legacy
280
     1
291
     1
101
ACDSRECORD
  1
AcDbDs::ID
 90
        3
  2
AcDs:Indexable
280
     1
291
     1
101
ACDSRECORD
  1
AcDbDs::ID
 90
        4
  2
AcDbDs::HandleAttribute
280
     7
282
     1
  0
ACDSSCHEMA
 90
        1
  1
AcDbDs::TreatedAsObjectDataSchema
  2
AcDbDs::TreatedAsObjectData
280
     1
 91
        0
  0
ACDSSCHEMA
 90
        2
  1
AcDbDs::LegacySchema
  2
AcDbDs::Legacy
280
     1
 91
        0
  0
ACDSSCHEMA
 90
        3
  1
AcDbDs::IndexedPropertySchema
  2
AcDs:Indexable
280
     1
 91
        0
  0
ACDSSCHEMA
 90
        4
  1
AcDbDs::HandleAttributeSchema
  2
AcDbDs::HandleAttribute
280
     7
 91
        1
284
     1
  0
ACDSRECORD
 90
        0
  2
AcDbDs::ID
280
    10
320
A21A1
  2
Thumbnail_Data
280
    15
 94
     3293
310
89504E470D0A1A0A0000000D49484452000000C500000100080300000034B4427100000300504C5445FFFFFF000000C8C8C80000000000000000000000000000000000000000000000000000330000660000990000CC0000FF0033000033330033660033990033CC0033FF0066000066330066660066990066CC0066FF0099
310
000099330099660099990099CC0099FF00CC0000CC3300CC6600CC9900CCCC00CCFF00FF0000FF3300FF6600FF9900FFCC00FFFF3300003300333300663300993300CC3300FF3333003333333333663333993333CC3333FF3366003366333366663366993366CC3366FF3399003399333399663399993399CC3399FF33CC00
310
33CC3333CC6633CC9933CCCC33CCFF33FF0033FF3333FF6633FF9933FFCC33FFFF6600006600336600666600996600CC6600FF6633006633336633666633996633CC6633FF6666006666336666666666996666CC6666FF6699006699336699666699996699CC6699FF66CC0066CC3366CC6666CC9966CCCC66CCFF66FF0066
310
FF3366FF6666FF9966FFCC66FFFF9900009900339900669900999900CC9900FF9933009933339933669933999933CC9933FF9966009966339966669966999966CC9966FF9999009999339999669999999999CC9999FF99CC0099CC3399CC6699CC9999CCCC99CCFF99FF0099FF3399FF6699FF9999FFCC99FFFFCC0000CC00
310
33CC0066CC0099CC00CCCC00FFCC3300CC3333CC3366CC3399CC33CCCC33FFCC6600CC6633CC6666CC6699CC66CCCC66FFCC9900CC9933CC9966CC9999CC99CCCC99FFCCCC00CCCC33CCCC66CCCC99CCCCCCCCCCFFCCFF00CCFF33CCFF66CCFF99CCFFCCCCFFFFFF0000FF0033FF0066FF0099FF00CCFF00FFFF3300FF3333
310
FF3366FF3399FF33CCFF33FFFF6600FF6633FF6666FF6699FF66CCFF66FFFF9900FF9933FF9966FF9999FF99CCFF99FFFFCC00FFCC33FFCC66FFCC99FFCCCCFFCCFFFFFF00FFFF33FFFF66FFFF99FFFFCCFFFFFF0000000D0D0D1A1A1A2828283535354343435050505D5D5D6B6B6B787878868686939393A1A1A1AEAEAEBB
310
BBBBC9C9C9D6D6D6E4E4E4F1F1F1FFFFFF000000000000000000000000000000000000000000000000000000000000B0E2D235000005974944415478DAED9D4B92E3200C863991EFBFE2245A6539D58B1C61BA133F8478DAE6215C3F355571327687CFFC122081637E9E50CCCFBF0714F3639E5040010A50800214A0000528
310
40018A6750BC662D2EC5A46DB061800214A0601406145014284001EB0605EC0214A0808F82A240010AF828503C525144C48F9D320D05FDD53D46419350D01FC3D414DF7AA628D45BF75AC74C5B94962114244C41686C061FE5D65A509C17D2080A59475751DBFB0B7AEA4821B4E359F7041452FF54BB2DDA5BB7A7244AD885
310
4E0ACF60C5A02379AE0EEB0E2090E0A12A5FD48EC2BFB3523EC22EF45104C4116806D514217D7B0C9B350BF7AB64961446A0108F07217B954114C19BE9553531CEBD38B4ADA8A8F0779632E8A088201433447ABD9E1405CD5020F9A11491EF3ACB30329213BB5D3D196E52C848CC922A6AE25196BFEE08560C50B7CF17D60E
310
8B698A51406153855BA2B58E789603E90F61B9ACCE3A147B1BBCC5EB31B5F954E19782D763719B65C9439886D10397E2FD8E52887BB9B0B74B1145E15CEF92755BCB28DE490AE73A5EED12EB6E4CB11F25DBC21EB43E8529B0EE3B14AF931469BB885394298ADA51ECC588D7908FBA4E71A373BCD65F58FFD31A14E3E77A9F
310
BE5B5842A6EFBE11D26C394B3A37E620A514E75A8E4C3D8ABB8ABA9038D9F217342F452A7F310945327F31098517EFAC17E1349D2842CDB076FBB3F8A8A2FC85B2086766F2C3F3179350A4F217A696718FCC5F98F9F3177C50AFD7BAD3F98BC34719BD14946538E6764A151544A0888F229514B93452A360674D8A7C0EA655
310
C0B6E65CAFB0CF6E4151C5BA4BF2172D03E735284AF2176D83FF3546E6A319EE525038ED4B7D19EE50ECD53EF217DFD087CCC6ACEF0753C41317EBD1EFBFA30B13F98B3D81D1360B93B7EE74FEC28D708AFC054F60A8A648E62F78BB8CCF88B1DA97E72FF807AD157536F2DF2E7FD19322A128D531F37EF98B3E2390AD9A6E
310
75293259E898B6AF36D70BAC3D30DD0AF6883D88E2EAC60F50D4B76E504051F051A0986104020A280A14A08075C3478162128A59C6B4D6D9B1203F3DB216899344F0A7A37527A3699F80BF25920BE86482207069570A9B8B957B7B0DBE9FB80B0AE4A5D6D8AE8AB262AD7F8CC299EC85289C6D02BD299894C33B16C26D4169
310
8A3606926A0B4716EFEB8A722F1D4A71C22EB8D3F52FB5A37C148FF37B294AB7E7889CE8B8AD41E328D65FB06A5BB7BBD80E2D63129BE334F5DDAE643C0A71AAEA11C88E92A4E805726B1C251FE8113F4DFB68908D04297996EA59122D97169A6B9BEBB13C5E0EA5DA3327AA2BCA4B476650F820B8DA9AA3FB14C1C3240A7B
310
22996E8A1C8AB6DD55098A321415D69DA360EE3863ECEA29C2F7BEDA92FFF68A8AA3685A2D7F96822BACDEFE8B2114CF680BCD3EEAEC136EB47A5A3231268AAC8E9C515182A9DEBEA4EAA3C193D6AD83E26881D32BEC34ED4BBA4E61F48C40EE50689AEB69A078810214A0808F82A2A6A0E8BCC6BF0DC5B23CA12D8653DCB7
310
EEE5BB036C999A82B5C6C48AD2504071E311C5A0A86CDDA080A2E0A34031C30804145014284001EB868F020528E0A35EDEE4616E8AE32993F32ACA5BB1BCED0EF1160F88791E6DD77CCF66CB24D6FFAD97A9CF52C85F498DFDAA8389CD588FB58D6CAFCFF6BE1B85985F7B14FB5DFD1C18CEE4CEC88F25837B63B6106988C2
310
7BC6AFBF682844E1DE6D06CBDE53230A13A458EF1E97B3DF162647B1EF1A3B5EDB38BE08C56E9F6C1532670853EC0B3BFCDA37A68828CA597B4C9A4BD22EF8831C69C6FE626D0BB6AC9D2D43A6717D613C1659A2280AFF5EFBD60B72B368CA97A030C1FEE2F051618AF58F7A14A48982B8A70DF4DD264461681C45781C2506
310
20E13F7A28CA74A1383DBF707EDD2143416A294AE617210AA38C02911C502006020A50C0BAE1A340010AF828504051A00005AC1B14B00B50B4A798B538D63D7B01052840010A50800214A0000528A6A7F8F780627E9E50FE0398AF36362A8685DA0000000049454E44AE42608251C38E5819C765E280AD3420ED1D7C8E0684
310
BCD058C9AE708F370F85D53E31A7B6517E02F0E3C3E47A1A05109786C2364A27E6472703D83B12CCBB24F29D924EFEDAEB009069F2E51A20768910AB6CF99501B4170F263420FF1622F78D067C9D1B3A0340A90104BD5B54F47F2700B67D824465127AB32825FFB7A85C1040A511C57E61AC02D04F20F4952E84DD01A42D60
310
CDEFE86732F4BD064001001E0740C701CFD280301AEA48700F009330CE7F8E90DE2585E701C88E8048064A3D01781F0040DC357568E9E359626AB284ED34E032007E2806E00800F62D33F6252B06C0005CD2091E9A11BA3300DD6AEF07DCF50DC05FCA1D3138F85B668A67FE3E0E80F8359CF62DCA8D2AE223A178BE896F9C
310
3775C4AF4DFA75FFF7C100E45F86BC9FAF06F0FB035FFB0350DCB396EF6554FB781B37C3EA76F134A21E5C2614166A1D3F3F588BC5B946A942717757867241002854FD1A055B9900B3FADA836785C24A03443CC0BDE158E167570308085A4F3293069EBE1FF05600621C183C20DA8F404823FC7D00E456AC42C2190011C1DD
310
0080672644E2D6BE08E086F98019A2A506F02D015846C8003C1080AD0B98091800036000CC091A0033010360000C80394103602660000C800130276800CC040C80013000E6040D80998001300006C09CE02300DCB82C3381A1DD5D5F9768C0838A01300006E09F7F7972793C80FFF28CCD58CFDCC2460000000049454E44AE
310
4260824E44AE4260827A900B5902C87F81FDCAF800F28D7A50110C12872D00E82E009284C298B3879C50720F355D9F519A7B6800FBB074EBB2C709B23F7304D067E9FAD8BD00D380640220A98C58561EA5B1E5F901EECF7D50D8B95ADE551A3A8C11351E06C0FDB193283D54F6EB3F1D00CD0442C9166ABDDF73003002B4F4
310
7FC150F21F9B102180258747FB1FE470978CD0B254B5584F13220A4001288007394105A026A0001480025027A800D4041480025000EA0415809A800250000A409DA002501350000A4001A8137C3C800797361398AE7BEA6B8B06BCA8280005A000FED9973797D703F80F483056FC0F94E2B20000000049454E44AE4260823D
310
80FFA6BD4883BDDC5A6A0000000049454E44AE426082A90694DBDDF47700907C007F7AE2FF3B22537C680C691448FFFF35880074747BC50747652A9C01003E04809CCE5091FF82367056D819FA29D447ED395E4B888CDBA08D00785099009C768213806902138009C004603AC1B701F0E09267026BBDA7BEE768C08BCA0460
310
023001F8A7DFDE5C5E0FC07F153036D95C42CA8A0000000049454E44AE4260824E44AE426082BAC014C16300862E292EB09D35EC6B02033E552600138009C0BF8F97CF03F01F3BFEE972AD450A590000000049454E44AE426082807F1F2F9F07E03FCF7BC2D0801C39B80000000049454E44AE426082
  0
ACDSRECORD
 90
        0
  2
AcDbDs::ID
280
    10
320
A21B9
  2
Thumbnail_Data
280
    15
 94
     2765
310
89504E470D0A1A0A0000000D49484452000000B40000010008030000002D3FACD700000300504C5445FFFFFF000000C8C8C80000000000000000000000000000000000000000000000000000330000660000990000CC0000FF0033000033330033660033990033CC0033FF0066000066330066660066990066CC0066FF0099
310
000099330099660099990099CC0099FF00CC0000CC3300CC6600CC9900CCCC00CCFF00FF0000FF3300FF6600FF9900FFCC00FFFF3300003300333300663300993300CC3300FF3333003333333333663333993333CC3333FF3366003366333366663366993366CC3366FF3399003399333399663399993399CC3399FF33CC00
310
33CC3333CC6633CC9933CCCC33CCFF33FF0033FF3333FF6633FF9933FFCC33FFFF6600006600336600666600996600CC6600FF6633006633336633666633996633CC6633FF6666006666336666666666996666CC6666FF6699006699336699666699996699CC6699FF66CC0066CC3366CC6666CC9966CCCC66CCFF66FF0066
310
FF3366FF6666FF9966FFCC66FFFF9900009900339900669900999900CC9900FF9933009933339933669933999933CC9933FF9966009966339966669966999966CC9966FF9999009999339999669999999999CC9999FF99CC0099CC3399CC6699CC9999CCCC99CCFF99FF0099FF3399FF6699FF9999FFCC99FFFFCC0000CC00
310
33CC0066CC0099CC00CCCC00FFCC3300CC3333CC3366CC3399CC33CCCC33FFCC6600CC6633CC6666CC6699CC66CCCC66FFCC9900CC9933CC9966CC9999CC99CCCC99FFCCCC00CCCC33CCCC66CCCC99CCCCCCCCCCFFCCFF00CCFF33CCFF66CCFF99CCFFCCCCFFFFFF0000FF0033FF0066FF0099FF00CCFF00FFFF3300FF3333
310
FF3366FF3399FF33CCFF33FFFF6600FF6633FF6666FF6699FF66CCFF66FFFF9900FF9933FF9966FF9999FF99CCFF99FFFFCC00FFCC33FFCC66FFCC99FFCCCCFFCCFFFFFF00FFFF33FFFF66FFFF99FFFFCCFFFFFF0000000D0D0D1A1A1A2828283535354343435050505D5D5D6B6B6B787878868686939393A1A1A1AEAEAEBB
310
BBBBC9C9C9D6D6D6E4E4E4F1F1F1FFFFFF000000000000000000000000000000000000000000000000000000000000B0E2D235000005644944415478DAED9D4B92E3201044EB44BAFF8A93B0EA65472F7C84B66C81F89410608A4F388989B1E4B1474FD55905A4909AFE166CF4F7F7BB5C7B42D37A0DD0800634A0010D6840
310
031AD039D03FEB34177A9518BF49D7852640431E2134011AF240F5803C503D200F2422AA071211D5038988EA81440434AA07A0513D00BD943CF4B39D3BAF5DDBA64D44BD735F40EB49A1774CE2A1A9065A5C1E16CD85B6EF3A6F4F9388E687EFC94057B54ED001E7555ECE543D7C4A6F5FEBE270F748C42092BEA68FDDB9A0
310
6329B4866E2D8F30C64C22D664A260F508F3CBEE36494409E808C4EBB9A90253BA7A30C4FA3211E7980444510C053C1DB44E23338938BA73E18835431F30D748BC512232F10AD91283BED2F1690B68EE4059C8D5D09FCA833D4A2632DFB94827E205712E7283442C86660F17F477734D6CDD086D5E9346AE4AC46372E4F518
310
CE795C9C413768956CFAF9E745AA3637AEDB19E5CDEC7594C713ECD87A04AF7EDAEFD067E8B7F30432A09B27A22243CD40D331E7DF8FBAB907DECE13B887CE9C6E9540BB917E3C1E3CB40AFE53E70CEE459D397329920765401B4DBBF270A845A0138968996FE4710D9D218FDC295636B46D14BC2A15266225B4E4D054857A
310
39264EF469A4074D0276683F11D39D4B556825662E059D6099113D916BFA3974ED24A0D4093F3ED826D25DA0F901D690A1692E3463E80D4AC45CE8D81F1BE87B6441DFBAA6D3550FD635D54D223DC2359D123AE99A4ED9B9A45DD3B18958E19A52F155CEE1AEE9998913558FB46B4A8ECF304B22DEB8A64126D204D077AE69
310
73AB49DE351570C7A45D5311434FD63515F2209BB8A67D916B1351B3D77D741FE44AAB573BBEC2BEF79ACF6AED4D6F8F5DEA2E0FDEE1D53A306BFCEB6A8EEF2B457D634066B9A62A704D5DAB7A30F4B50199704DFB9BEA9465F5EEFE74EC9659EADE89E859BD74ED4FF7F7F2B2A1539AEE0D5D5C3D62AB37D03489EBE3836E
310
3CA8D37CA3C9A09B0D8F67F23D04A1E99BA02BD66A4F31349D019A008DEAF1D5D5632834EE920334AA07A0513D000D79D425A20A8679A1DF30085ADD357744FA5E30F65A7A9A6AD2F2C8331E9DB7DEB7DC386F85DF53A4A41331301EE9DA78B4FA60A05D1BAD03749EF1E847DABF101B41F7908777F03C7978F3AED8B054D2
310
8998673C329AB6D8F1F7D480EAF12E105EF5F0A6B8179FEB583DA292BCBF9E98CAC6979C2DE59D83447CEBBA71FFEE698AB7DC4F4E35F6B097B352D0C2DC95630FAF4B4C7C68B249C079612B7F61DE78687B65F6064CC038AB1E9A7A97280A56420E5D6BBA455B6937B2E952E476D0B7916CB7E8BB5A1E17D037E463177D27
310
A113E49343F391D5D3CA2311DEA16B4D8BA0DDA0AF057D76356BC863BE442CA398A67AE8827BD6E79647E2EEC2618BBE6BD7748C5D5EBF0D4CC46AD7B4129AE8F3D175FDE58B6A68FA52E89FB5A109D09007AAC79AF2905B9A2997883BF07AD0CBC9637B3FBE635B2911872163BDC7DC8958F714334097CB633C347D0934AA
310
47DF6E1CD0DF200F0234E481EA0179A07A401E4844167AD4BD6F1FC8C35917BD4C22B2CF6E9F1EDA9B5771532BFE99AF4657E75FFA7CBC4393ABF8D7F2081EBD16429B47E46BBB8CD7FF47C36BD7F836BB489B48C4E89955C5D0E7AA4EED9E339128F4111FD2BA08DA24C1B9DEDE3C60C57C53AC7A98C3D9557414C6908526
310
179AB45196798B9A4353046D624DB5BFAD49BA31D046184E269AEDB6CAACF7851879B891261AE9246540D38FBD2181ECDD2B0C745C2CE4CE260F5ABBD52386A6189A8642F3DDF894D0543C6062FBC0AE6267662EDAFF3D1139D09D0757FCCC65E6C1347C0F4C6CE17B401EA81E90071211D5038988EA814444F54022021AD5
310
03D0A81E8046F558137A9D766A7AB1066840031AD0800634A0010DE85BE8DFE5DA137ABDF60F3C62778CD3FBAAC60000000049454E44AE426082E3FA80B66E50AC0B5402A141E2804F032196160F275920340A80761A9036914CA3012933EA6B48D2F54934402C8C60BEBE0FE0F2D70976E006639D84F702A97698CC92FA07
310
702510CA65226EE36C0C85613C00AC1DD70043BD400E854707005526750DA00B4C496FCE01B8901CFB3500A9010664B96CEAFF71009C68857D2C00803DF3EF0D0740AA841505D3F02500DFB5011FEA42D816438CA0D3009804405AFFCF04FCE2F864006C1E043E149C08402A1333B172386CA5F9B211EC0800A4C5D15C1C32
310
170062088C2C9B980900FDEE8D5FB7FBBF4C8DCD9BA0A5060C02E0525300B30378820D50000A40017CC9081EB2900A40011C067039013BB60DE05F793B9E065C05200BF77DF53AF24DA0F9A5BF02ECA8B20DF032CD9F01E045BB44D44D00C53D8DF6F9DC0180FDAFF9FBFEB38C54E63D00A4C067141B103FB3EFFEEA962DC2
310
805FAFDE3C1880F40B0EE2B77E33E152B50EA6AA7ED1DF8F0010285CF3BEB7B51643206900E6CAED1FFC02800696B1910D10006A4A4E8DE3D30044F12B461024007C1E0088CE0D1010A4919B0100D0DD5BABFF671F00BE940F60BFFBEE4044F6BC84C8965C5300D094980250000A4001280005A00014800250000A40012800
310
05A00014800250000A4001280005A00014800278388087B743009EFCB80B60AEA60014C01BC0DF899B033079FB0F3708CD6E2E3C47990000000049454E44AE4260820C4003F8FBC36306F0E3E33F46BC776E6459FA1B0000000049454E44AE426082
  0
ACDSRECORD
 90
        0
  2
AcDbDs::ID
280
    10
320
22
  2
Thumbnail_Data
280
    15
 94
     3005
310
89504E470D0A1A0A0000000D49484452000001000000007B0803000000AC3EAEE200000300504C5445212830000000C8C8C80000000000000000000000000000000000000000000000000000330000660000990000CC0000FF0033000033330033660033990033CC0033FF0066000066330066660066990066CC0066FF0099
310
000099330099660099990099CC0099FF00CC0000CC3300CC6600CC9900CCCC00CCFF00FF0000FF3300FF6600FF9900FFCC00FFFF3300003300333300663300993300CC3300FF3333003333333333663333993333CC3333FF3366003366333366663366993366CC3366FF3399003399333399663399993399CC3399FF33CC00
310
33CC3333CC6633CC9933CCCC33CCFF33FF0033FF3333FF6633FF9933FFCC33FFFF6600006600336600666600996600CC6600FF6633006633336633666633996633CC6633FF6666006666336666666666996666CC6666FF6699006699336699666699996699CC6699FF66CC0066CC3366CC6666CC9966CCCC66CCFF66FF0066
310
FF3366FF6666FF9966FFCC66FFFF9900009900339900669900999900CC9900FF9933009933339933669933999933CC9933FF9966009966339966669966999966CC9966FF9999009999339999669999999999CC9999FF99CC0099CC3399CC6699CC9999CCCC99CCFF99FF0099FF3399FF6699FF9999FFCC99FFFFCC0000CC00
310
33CC0066CC0099CC00CCCC00FFCC3300CC3333CC3366CC3399CC33CCCC33FFCC6600CC6633CC6666CC6699CC66CCCC66FFCC9900CC9933CC9966CC9999CC99CCCC99FFCCCC00CCCC33CCCC66CCCC99CCCCCCCCCCFFCCFF00CCFF33CCFF66CCFF99CCFFCCCCFFFFFF0000FF0033FF0066FF0099FF00CCFF00FFFF3300FF3333
310
FF3366FF3399FF33CCFF33FFFF6600FF6633FF6666FF6699FF66CCFF66FFFF9900FF9933FF9966FF9999FF99CCFF99FFFFCC00FFCC33FFCC66FFCC99FFCCCCFFCCFFFFFF00FFFF33FFFF66FFFF99FFFFCCFFFFFF0000000D0D0D1A1A1A2828283535354343435050505D5D5D6B6B6B787878868686939393A1A1A1AEAEAEBB
310
BBBBC9C9C9D6D6D6E4E4E4F1F1F1FFFFFF000000000000000000000000000000000000000000000000000000000000B21171F6000001B04944415478DAEDDB6D6EC3201045D159A317EC95CC22BC84F2611B0693AA4AA456E5DDD3C869F36F5E003324350300000000E077B96B57EF2500F7EB37B1EACFCB15C04861E89F65
310
AABDFDDECABF03D0190077696D0A282D85AD7A0F23406BE8DBB9F4DDA58B2C7B6E63F9E17EB87600A938F7ADF0E7985FB4F4BDB9DEE1F4A8296C1A01981D491CE35BBE3E02583281547F082007926AB7761DD780C5D682BDE7691AD400C214D0BA0D8EB35FA9057A96DA35438A01B42E50F41C20F6028AADA0661FDC9D03B4
310
BB9FE439C0BC25506A05E54E436B1F20567EDE001EF971ED705327583AC27CD50860D60CF9A4195A35801F37430B4F81D00C6D1D83DCFECF090000A0628FDB203FF782C1EA7D40DA075BDF08F8D9121FE5C7C402C8CF4A015837F6CB5309A2BE203105C65D601D01F7DF9A5BE1AE6EBD0C6A0BDC8720F6C9D066D721483714
310
944EC55B007159500D60B62EAC1FC0E40B1042018473409DAF047F3B056A14A61D80CE3E8000E40310FF30844F83B4B9E6BF4511000040F8BE275D7F7FF77F69F50140001FFAFF01D85B352D13C03D064C2F007B1C7ED30D0100000000000000000000000000803FF005B9EFCF7DA78DAA050000000049454E44AE42608242
310
6082CE32902F83F99D410B0A70CC01A638076C98E084005799C8A6AE8DBEF300F777713B2CE67A822F04489B84FAD21869BE4D7022037CFCFC505EAB13E0D103F232D09BA0FE9EE09400693728667A82DFCB00D92D0AF0E801BE127636D8BCA744F3BE2086D315C0778442FC660528A805F0DBE6BE00BA0BE2910499002FFB
310
4C861E1C2805A049012C7864DC0D8F12C0B200942F83F4BD296042827D14BF7101E80A7D14FF4A37CC430000D417427F703E9A0410D7D07D3EE79973D7B400CABB21332B4078DEEF7705D06457D302FC844F1680567ADABD9AAD990BD26F0BF0E97AC6935B5580EAB16F54F000000000000000000000000000000000000000
310
000000003E832F3596445316F13CDD0000000049454E44AE426082E0F10000000049454E44AE42608247685905901C91D1C3F1F8A48D838F5D205C27A79E8091202896C3615AAA702EF0451D8031729CABC0E388A019A30A902DB1735AB81901C205441DA09B809120280838EB00E8ECB756F11B91B13A8087236183B04BFF
310
856E02527BEC4601A1FF8B145B44A0DD057A7FBC122006E418EDBF5300E9FE2179A6828C007077DF5D82804C0D1019F8030294B90A4FC13079C0FD77D67A7C021310B2C07E04F84980AC03BE25402313613A84F0C4FE35098843D32D0908C59F7BF6D9F57F3E6D04180C866DD6024B10F063B6A72380E2531F3EDC1DFAC704
310
FC5C91E9644B02E8E704CC16927817D7E71EB00001BC8F8DA6C07F0801F18147E92930853B2C5E96040E84C1BF23E07F134D21064802602302C2D37FA89BAC3628CE615F020C0683C16030180C0683C16030180C068362FC0351FFE602EF127DF40000000049454E44AE426082454E44AE4260825385B967FF73AE93000000
310
0049454E44AE4260824781DA21561640A503BD4161F154B0C170230156C01F0A55EEF97E04BC0D0000000049454E44AE4260821611C41201262220701CC4F91480AD406582309B642B88E9E084F06D6A00302905F23C25054B962C59B264C9926184267DCC6B81CF2C4C8D1FD4A7B740F6A3F871F0AA4D55DD691F1A3F0E01
310
F2B26CE364408200D5A7734668CCC7C3127FDF81400535AEE713B0EF61AD71E5FEA500DDD688212DA0582F752DBF4A8026821F033F491020FED613B25FF891CD5A38FE3FCF4E7E7F7F044927D820A00402782201A4AD41FE8FD2E301C13309280FFE25573B66F8E28FF65A601602962C59B264C9922543CB3F14B5230C5F37
310
A0130000000049454E44AE426082B63A0172D86DE1BEC99F97C26C9C0D661AEC860035E6862F46EE7E4109CA2B042C2588E5A1CBDF0E821501688D06FCC37ED0038A1F8ABACF556247F60633FE6AE6AF030284071833BF3D104066373004837E08004C29D09107D852A00B02C49DF4A612EC2708D6F83B202022570C80BA22
310
40505169C1C713201D3FAE83BA22A0DCA847859F4C800EFD5C77FEEE4C001D41406F3F1B5D10D0DF2FA717EA074CBD591D04BB2380CDF59E08A885509F0C748ADF5F1F117E528C3A35B62F0FDB6A4FFDFF4A2F012F01AF6DF40074EA0B2F01BD13F0C680B709BC04BC04BC41F0B5D75E7B75C09B0592FD015EB7AB903D4335
310
250000000049454E44AE426082EB460100919A9EA8071300A300D40BF6DD95B1AF2112CB179C7302088BECE04B8D00207EE3D7C304BC0380C100A4E2F92BBFC25F9C4B846AE9CB058129235D17008554F872004A3A79D041D09D12003DE3E3D50D112FA33DE6B5E203F06C0046EB7F3F9A1706E365003E13F800BC0740210C
310
1ACB973778A60BD848848CF00600FC1E0CA0900AEB2A40ABC5934D2015CFC9FF730C9E1C06131DF8BDC303928E106D88C0FB007837FF7B91FC5157F8B196BEB35D724D5FF61BDFF8C66DC61F34B9BB8815727F670000000049454E44AE4260829BDBCF9FFDE7B6F86BAEBEB7FD6F9F05000E1439BFEB00C66DF46FE78356D4
310
BD7FAB978ABA3FE7EBF6B3EE0B7E98F89DA6056768E3873B7C9A485E9B69F8FE1862663EBF391826400A4F368A133A60E601CE3B764F6A845F16D56B7C923398F8AD8C3E96DBF9A250F863F43F7D9E3DFC9B18DE3A00DA64CDEB6DCABAF3F7815F333EAF44F3F79ECA278D00BEE8B1B366B3AF8A4B9E38BB786EBFBE24341F
310
24D5BC2AEEBF342E391F0A0249AFF8A2D1380FDA7106D038BD7FE187F5F7F9EDFD4E3E538C6C0E15E79C6A5879507380A7759783463D1B875EAC7BC113468E83A49A2AB2BFCE01CFF42EAF81A1970600CFF62E2F4195AF0058EA4C84D92DDFE0001EF7C23370F693BA9EB2AE4CF1DEFD9663CA019C5D5BE1219CF9A55CABFC
310
BB883832C03FC263BCCEA277971BD5AFEA7AA722D5FCE0EE391611BF2343EF82DB7B8B15BC3D141CFD85A23F2C16DE7E98FF8EBFA0FBF3F5DF00FFD9961CFF01CE140027BD33610D0000000049454E44AE426082
  0
ENDSEC
  0
EOF
