  0
SECTION
  2
HEADER
  9
$ACADVER
  1
AC1027
  9
$ACADMAINTVER
 70
    83
  9
$DWGCODEPAGE
  3
ANSI_1252
  9
$LASTSAVEDBY
  1
chadclouser
  9
$REQUIREDVERSIONS
160
                 0
  9
$INSBASE
 10
0.0
 20
0.0
 30
0.0
  9
$EXTMIN
 10
90.93972438091851
 20
-103.2754313192629
 30
0.0
  9
$EXTMAX
 10
126.9681290962802
 20
-76.90175096203224
 30
0.0
  9
$LIMMIN
 10
0.0
 20
0.0
  9
$LIMMAX
 10
12.0
 20
9.0
  9
$ORTHOMODE
 70
     1
  9
$REGENMODE
 70
     1
  9
$FILLMODE
 70
     1
  9
$QTEXTMODE
 70
     0
  9
$MIRRTEXT
 70
     0
  9
$LTSCALE
 40
1.0
  9
$ATTMODE
 70
     1
  9
$TEXTSIZE
 40
12.10402048440558
  9
$TRACEWID
 40
0.05
  9
$TEXTSTYLE
  7
Standard
  9
$CLAYER
  8
0
  9
$CELTYPE
  6
ByLayer
  9
$CECOLOR
 62
   256
  9
$CELTSCALE
 40
1.0
  9
$DISPSILH
 70
     0
  9
$DIMSCALE
 40
1.0
  9
$DIMASZ
 40
1.0
  9
$DIMEXO
 40
0.05
  9
$DIMDLI
 40
0.505
  9
$DIMRND
 40
0.0
  9
$DIMDLE
 40
0.675
  9
$DIMEXE
 40
0.675
  9
$DIMTP
 40
0.0
  9
$DIMTM
 40
0.0
  9
$DIMTXT
 40
1.0
  9
$DIMCEN
 40
0.09
  9
$DIMTSZ
 40
0.0
  9
$DIMTOL
 70
     0
  9
$DIMLIM
 70
     0
  9
$DIMTIH
 70
     0
  9
$DIMTOH
 70
     0
  9
$DIMSE1
 70
     0
  9
$DIMSE2
 70
     0
  9
$DIMTAD
 70
     0
  9
$DIMZIN
 70
     3
  9
$DIMBLK
  1
ARCHTICK
  9
$DIMASO
 70
     1
  9
$DIMSHO
 70
     1
  9
$DIMPOST
  1

  9
$DIMAPOST
  1

  9
$DIMALT
 70
     0
  9
$DIMALTD
 70
     2
  9
$DIMALTF
 40
25.4
  9
$DIMLFAC
 40
0.9999999999999998
  9
$DIMTOFL
 70
     1
  9
$DIMTVP
 40
0.0
  9
$DIMTIX
 70
     0
  9
$DIMSOXD
 70
     0
  9
$DIMSAH
 70
     0
  9
$DIMBLK1
  1

  9
$DIMBLK2
  1

  9
$DIMSTYLE
  2
HUNTER-1.5INCH
  9
$DIMCLRD
 70
   256
  9
$DIMCLRE
 70
   256
  9
$DIMCLRT
 70
   256
  9
$DIMTFAC
 40
1.0
  9
$DIMGAP
 40
0.04
  9
$DIMJUST
 70
     0
  9
$DIMSD1
 70
     0
  9
$DIMSD2
 70
     0
  9
$DIMTOLJ
 70
     1
  9
$DIMTZIN
 70
     0
  9
$DIMALTZ
 70
     0
  9
$DIMALTTZ
 70
     0
  9
$DIMUPT
 70
     0
  9
$DIMDEC
 70
     0
  9
$DIMTDEC
 70
     0
  9
$DIMALTU
 70
     2
  9
$DIMALTTD
 70
     2
  9
$DIMTXSTY
  7
Hunter
  9
$DIMAUNIT
 70
     0
  9
$DIMADEC
 70
     0
  9
$DIMALTRND
 40
0.0
  9
$DIMAZIN
 70
     0
  9
$DIMDSEP
 70
    46
  9
$DIMATFIT
 70
     1
  9
$DIMFRAC
 70
     0
  9
$DIMLDRBLK
  1
Open90
  9
$DIMLUNIT
 70
     4
  9
$DIMLWD
 70
    -1
  9
$DIMLWE
 70
    -2
  9
$DIMTMOVE
 70
     2
  9
$DIMFXL
 40
1.0
  9
$DIMFXLON
 70
     0
  9
$DIMJOGANG
 40
0.7853981633974483
  9
$DIMTFILL
 70
     0
  9
$DIMTFILLCLR
 70
     0
  9
$DIMARCSYM
 70
     0
  9
$DIMLTYPE
  6

  9
$DIMLTEX1
  6

  9
$DIMLTEX2
  6

  9
$DIMTXTDIRECTION
 70
     0
  9
$LUNITS
 70
     4
  9
$LUPREC
 70
     4
  9
$SKETCHINC
 40
0.1
  9
$FILLETRAD
 40
0.0
  9
$AUNITS
 70
     0
  9
$AUPREC
 70
     2
  9
$MENU
  1
.
  9
$ELEVATION
 40
0.0
  9
$PELEVATION
 40
0.0
  9
$THICKNESS
 40
0.0
  9
$LIMCHECK
 70
     0
  9
$CHAMFERA
 40
0.0
  9
$CHAMFERB
 40
0.0
  9
$CHAMFERC
 40
0.0
  9
$CHAMFERD
 40
0.0
  9
$SKPOLY
 70
     0
  9
$TDCREATE
 40
2454770.393585949
  9
$TDUCREATE
 40
2454770.601919282
  9
$TDUPDATE
 40
2458066.561604375
  9
$TDUUPDATE
 40
2458066.769937708
  9
$TDINDWG
 40
96.0711342593
  9
$TDUSRTIMER
 40
96.0711340856
  9
$USRTIMER
 70
     1
  9
$ANGBASE
 50
0.0
  9
$ANGDIR
 70
     0
  9
$PDMODE
 70
     0
  9
$PDSIZE
 40
0.0
  9
$PLINEWID
 40
0.0
  9
$SPLFRAME
 70
     0
  9
$SPLINETYPE
 70
     6
  9
$SPLINESEGS
 70
     8
  9
$HANDSEED
  5
AF411
  9
$SURFTAB1
 70
     6
  9
$SURFTAB2
 70
     6
  9
$SURFTYPE
 70
     6
  9
$SURFU
 70
     6
  9
$SURFV
 70
     6
  9
$UCSBASE
  2

  9
$UCSNAME
  2

  9
$UCSORG
 10
0.0
 20
0.0
 30
0.0
  9
$UCSXDIR
 10
1.0
 20
0.0
 30
0.0
  9
$UCSYDIR
 10
0.0
 20
1.0
 30
0.0
  9
$UCSORTHOREF
  2

  9
$UCSORTHOVIEW
 70
     0
  9
$UCSORGTOP
 10
0.0
 20
0.0
 30
0.0
  9
$UCSORGBOTTOM
 10
0.0
 20
0.0
 30
0.0
  9
$UCSORGLEFT
 10
0.0
 20
0.0
 30
0.0
  9
$UCSORGRIGHT
 10
0.0
 20
0.0
 30
0.0
  9
$UCSORGFRONT
 10
0.0
 20
0.0
 30
0.0
  9
$UCSORGBACK
 10
0.0
 20
0.0
 30
0.0
  9
$PUCSBASE
  2

  9
$PUCSNAME
  2

  9
$PUCSORG
 10
0.0
 20
0.0
 30
0.0
  9
$PUCSXDIR
 10
1.0
 20
0.0
 30
0.0
  9
$PUCSYDIR
 10
0.0
 20
1.0
 30
0.0
  9
$PUCSORTHOREF
  2

  9
$PUCSORTHOVIEW
 70
     0
  9
$PUCSORGTOP
 10
0.0
 20
0.0
 30
0.0
  9
$PUCSORGBOTTOM
 10
0.0
 20
0.0
 30
0.0
  9
$PUCSORGLEFT
 10
0.0
 20
0.0
 30
0.0
  9
$PUCSORGRIGHT
 10
0.0
 20
0.0
 30
0.0
  9
$PUCSORGFRONT
 10
0.0
 20
0.0
 30
0.0
  9
$PUCSORGBACK
 10
0.0
 20
0.0
 30
0.0
  9
$USERI1
 70
     0
  9
$USERI2
 70
     0
  9
$USERI3
 70
     0
  9
$USERI4
 70
     0
  9
$USERI5
 70
     0
  9
$USERR1
 40
0.0
  9
$USERR2
 40
0.0
  9
$USERR3
 40
0.0
  9
$USERR4
 40
0.0
  9
$USERR5
 40
12.07090419886942
  9
$WORLDVIEW
 70
     1
  9
$SHADEDGE
 70
     3
  9
$SHADEDIF
 70
    70
  9
$TILEMODE
 70
     1
  9
$MAXACTVP
 70
    64
  9
$PINSBASE
 10
0.0
 20
0.0
 30
0.0
  9
$PLIMCHECK
 70
     0
  9
$PEXTMIN
 10
0.0145643619954186
 20
0.0132348038147043
 30
-0.0000000349181948
  9
$PEXTMAX
 10
10.27458914444549
 20
7.796388667592996
 30
0.0000000814935746
  9
$PLIMMIN
 10
-0.7005418191744587
 20
-0.2281003861915408
  9
$PLIMMAX
 10
10.99237156665231
 20
8.039616149241531
  9
$UNITMODE
 70
     0
  9
$VISRETAIN
 70
     1
  9
$PLINEGEN
 70
     0
  9
$PSLTSCALE
 70
     1
  9
$TREEDEPTH
 70
  3020
  9
$CMLSTYLE
  2
Standard
  9
$CMLJUST
 70
     1
  9
$CMLSCALE
 40
8.0
  9
$PROXYGRAPHICS
 70
     1
  9
$MEASUREMENT
 70
     0
  9
$CELWEIGHT
370
    -1
  9
$ENDCAPS
280
     0
  9
$JOINSTYLE
280
     0
  9
$LWDISPLAY
290
     0
  9
$INSUNITS
 70
     1
  9
$HYPERLINKBASE
  1

  9
$STYLESHEET
  1
Standard Pen Settings.ctb
  9
$XEDIT
290
     1
  9
$CEPSNTYPE
380
     0
  9
$PSTYLEMODE
290
     1
  9
$FINGERPRINTGUID
  2
{042633EE-7B2A-4DA3-9B1E-3D8485D08136}
  9
$VERSIONGUID
  2
{89830101-ED32-4DAE-A71C-B75159A3BFC2}
  9
$EXTNAMES
290
     1
  9
$PSVPSCALE
 40
0.0
  9
$OLESTARTUP
290
     0
  9
$SORTENTS
280
   127
  9
$INDEXCTL
280
     0
  9
$HIDETEXT
280
     1
  9
$XCLIPFRAME
280
     0
  9
$HALOGAP
280
     0
  9
$OBSCOLOR
 70
   257
  9
$OBSLTYPE
280
     0
  9
$INTERSECTIONDISPLAY
280
     0
  9
$INTERSECTIONCOLOR
 70
   257
  9
$DIMASSOC
280
     2
  9
$PROJECTNAME
  1

  9
$CAMERADISPLAY
290
     0
  9
$LENSLENGTH
 40
50.0
  9
$CAMERAHEIGHT
 40
0.0
  9
$STEPSPERSEC
 40
2.0
  9
$STEPSIZE
 40
6.0
  9
$3DDWFPREC
 40
2.0
  9
$PSOLWIDTH
 40
0.25
  9
$PSOLHEIGHT
 40
4.0
  9
$LOFTANG1
 40
1.570796326794896
  9
$LOFTANG2
 40
1.570796326794896
  9
$LOFTMAG1
 40
0.0
  9
$LOFTMAG2
 40
0.0
  9
$LOFTPARAM
 70
     7
  9
$LOFTNORMALS
280
     1
  9
$LATITUDE
 40
37.795
  9
$LONGITUDE
 40
-122.394
  9
$NORTHDIRECTION
 40
0.0
  9
$TIMEZONE
 70
 -8000
  9
$LIGHTGLYPHDISPLAY
280
     1
  9
$TILEMODELIGHTSYNCH
280
     1
  9
$CMATERIAL
347
96
  9
$SOLIDHIST
280
     1
  9
$SHOWHIST
280
     1
  9
$DWFFRAME
280
     2
  9
$DGNFRAME
280
     0
  9
$REALWORLDSCALE
290
     1
  9
$INTERFERECOLOR
 62
     1
  9
$INTERFEREOBJVS
345
A3
  9
$INTERFEREVPVS
346
A0
  9
$CSHADOW
280
     0
  9
$SHADOWPLANELOCATION
 40
0.0
  0
ENDSEC
  0
SECTION
  2
CLASSES
  0
CLASS
  1
ACDBDICTIONARYWDFLT
  2
AcDbDictionaryWithDefault
  3
ObjectDBX Classes
 90
        0
 91
        1
280
     0
281
     0
  0
CLASS
  1
ACDBPLACEHOLDER
  2
AcDbPlaceHolder
  3
ObjectDBX Classes
 90
        0
 91
        1
280
     0
281
     0
  0
CLASS
  1
LAYOUT
  2
AcDbLayout
  3
ObjectDBX Classes
 90
        0
 91
        3
280
     0
281
     0
  0
CLASS
  1
DICTIONARYVAR
  2
AcDbDictionaryVar
  3
ObjectDBX Classes
 90
        0
 91
       13
280
     0
281
     0
  0
CLASS
  1
TABLESTYLE
  2
AcDbTableStyle
  3
ObjectDBX Classes
 90
     4095
 91
        1
280
     0
281
     0
  0
CLASS
  1
MATERIAL
  2
AcDbMaterial
  3
ObjectDBX Classes
 90
     1153
 91
        3
280
     0
281
     0
  0
CLASS
  1
VISUALSTYLE
  2
AcDbVisualStyle
  3
ObjectDBX Classes
 90
     4095
 91
       26
280
     0
281
     0
  0
CLASS
  1
EXACXREFPANELOBJECT
  2
ExAcXREFPanelObject
  3
EXAC_ESW
 90
     1025
 91
        0
280
     0
281
     0
  0
CLASS
  1
NPOCOLLECTION
  2
AcDbImpNonPersistentObjectsCollection
  3
ObjectDBX Classes
 90
     1153
 91
        0
280
     0
281
     0
  0
CLASS
  1
PLOTSETTINGS
  2
AcDbPlotSettings
  3
ObjectDBX Classes
 90
        0
 91
        6
280
     0
281
     0
  0
CLASS
  1
SORTENTSTABLE
  2
AcDbSortentsTable
  3
ObjectDBX Classes
 90
        0
 91
        2
280
     0
281
     0
  0
CLASS
  1
ACAD_EVALUATION_GRAPH
  2
AcDbEvalGraph
  3
ObjectDBX Classes
 90
     1153
 91
        0
280
     0
281
     0
  0
CLASS
  1
ACAECUSTOBJ
  2
AcAeEditorObj
  3
AcAeEditorObj
 90
     1024
 91
        0
280
     0
281
     0
  0
CLASS
  1
ACDB_DYNAMICBLOCKPURGEPREVENTER_VERSION
  2
AcDbDynamicBlockPurgePreventer
  3
ObjectDBX Classes
 90
     1153
 91
        0
280
     0
281
     0
  0
CLASS
  1
BLOCKVISIBILITYPARAMETER
  2
AcDbBlockVisibilityParameter
  3
ObjectDBX Classes
 90
     1153
 91
        0
280
     0
281
     0
  0
CLASS
  1
BLOCKVISIBILITYGRIP
  2
AcDbBlockVisibilityGrip
  3
ObjectDBX Classes
 90
     1153
 91
        0
280
     0
281
     0
  0
CLASS
  1
BLOCKGRIPLOCATIONCOMPONENT
  2
AcDbBlockGripExpr
  3
ObjectDBX Classes
 90
     1153
 91
        0
280
     0
281
     0
  0
CLASS
  1
ACDB_BLOCKREPRESENTATION_DATA
  2
AcDbBlockRepresentationData
  3
ObjectDBX Classes
 90
     1153
 91
        0
280
     0
281
     0
  0
CLASS
  1
BLOCKROTATIONPARAMETER
  2
AcDbBlockRotationParameter
  3
ObjectDBX Classes
 90
     1153
 91
        0
280
     0
281
     0
  0
CLASS
  1
BLOCKROTATIONGRIP
  2
AcDbBlockRotationGrip
  3
ObjectDBX Classes
 90
     1153
 91
        0
280
     0
281
     0
  0
CLASS
  1
BLOCKROTATEACTION
  2
AcDbBlockRotateAction
  3
ObjectDBX Classes
 90
     1153
 91
        0
280
     0
281
     0
  0
CLASS
  1
EXACTERMXREFMAP
  2
ExAcTermXrefMap
  3
EXAC_SERVICE
 90
     1025
 91
        0
280
     0
281
     0
  0
CLASS
  1
RASTERVARIABLES
  2
AcDbRasterVariables
  3
ISM
 90
        0
 91
        1
280
     0
281
     0
  0
CLASS
  1
SCALE
  2
AcDbScale
  3
ObjectDBX Classes
 90
     1153
 91
       37
280
     0
281
     0
  0
CLASS
  1
MLEADERSTYLE
  2
AcDbMLeaderStyle
  3
ACDB_MLEADERSTYLE_CLASS
 90
     4095
 91
        1
280
     0
281
     0
  0
CLASS
  1
CELLSTYLEMAP
  2
AcDbCellStyleMap
  3
ObjectDBX Classes
 90
     1152
 91
        1
280
     0
281
     0
  0
CLASS
  1
BLOCKLINEARPARAMETER
  2
AcDbBlockLinearParameter
  3
ObjectDBX Classes
 90
     1153
 91
        0
280
     0
281
     0
  0
CLASS
  1
BLOCKLINEARGRIP
  2
AcDbBlockLinearGrip
  3
ObjectDBX Classes
 90
     1153
 91
        0
280
     0
281
     0
  0
CLASS
  1
BLOCKSCALEACTION
  2
AcDbBlockScaleAction
  3
ObjectDBX Classes
 90
     1153
 91
        0
280
     0
281
     0
  0
CLASS
  1
WIPEOUT
  2
AcDbWipeout
  3
WipeOut|Product Desc: Object Enabler for WipeOut entity | Company: Autodesk, Inc. | WEB Address: www.autodesk.com
 90
     2175
 91
        0
280
     0
281
     1
  0
CLASS
  1
WIPEOUTVARIABLES
  2
AcDbWipeoutVariables
  3
"WipeOut|Product Desc:     WipeOut Dbx Application|Company:          Autodesk, Inc.|WEB Address:      www.autodesk.com"
 90
        0
 91
        1
280
     0
281
     0
  0
CLASS
  1
DIMASSOC
  2
AcDbDimAssoc
  3
"AcDbDimAssoc|Product Desc:     AcDim ARX App For Dimension|Company:          Autodesk, Inc.|WEB Address:      www.autodesk.com"
 90
        0
 91
        0
280
     0
281
     0
  0
CLASS
  1
AEC_REFEDIT_STATUS_TRACKER
  2
AecDbRefEditStatusTracker
  3
AecArchBase70|Product Desc: Autodesk Architectural Desktop 2007 |Company: Autodesk,Inc. |WEB Address: www.autodesk.com
 90
      129
 91
        0
280
     0
281
     0
  0
CLASS
  1
BLOCKPOLARPARAMETER
  2
AcDbBlockPolarParameter
  3
ObjectDBX Classes
 90
     1153
 91
        0
280
     0
281
     0
  0
CLASS
  1
BLOCKPOLARGRIP
  2
AcDbBlockPolarGrip
  3
ObjectDBX Classes
 90
     1153
 91
        0
280
     0
281
     0
  0
CLASS
  1
BLOCKSTRETCHACTION
  2
AcDbBlockStretchAction
  3
ObjectDBX Classes
 90
     1153
 91
        0
280
     0
281
     0
  0
CLASS
  1
BLOCKFLIPPARAMETER
  2
AcDbBlockFlipParameter
  3
ObjectDBX Classes
 90
     1153
 91
        0
280
     0
281
     0
  0
CLASS
  1
BLOCKFLIPGRIP
  2
AcDbBlockFlipGrip
  3
ObjectDBX Classes
 90
     1153
 91
        0
280
     0
281
     0
  0
CLASS
  1
BLOCKFLIPACTION
  2
AcDbBlockFlipAction
  3
ObjectDBX Classes
 90
     1153
 91
        0
280
     0
281
     0
  0
CLASS
  1
AEC_NOTIFICATION_TRACKER
  2
AecDbNotificationTracker
  3
AecBase70|Product Desc: Autodesk Architectural Desktop 2007 |Company: Autodesk,Inc. |WEB Address: www.autodesk.com
 90
      129
 91
        0
280
     0
281
     0
  0
CLASS
  1
ACDBSECTIONVIEWSTYLE
  2
AcDbSectionViewStyle
  3
ObjectDBX Classes
 90
     1025
 91
        1
280
     0
281
     0
  0
CLASS
  1
ACDBDETAILVIEWSTYLE
  2
AcDbDetailViewStyle
  3
ObjectDBX Classes
 90
     1025
 91
        1
280
     0
281
     0
  0
CLASS
  1
AEC_DISP_REP_ANCHOR_TAG_TO_ENT
  2
AecDbDispRepAnchorTagToEnt
  3
AecBase70|Product Desc: Autodesk Architectural Desktop 2007 |Company: Autodesk,Inc. |WEB Address: www.autodesk.com
 90
      129
 91
        1
280
     0
281
     0
  0
CLASS
  1
AEC_DISP_PROPS_ENT
  2
AecDbDispPropsEnt
  3
AecBase70|Product Desc: Autodesk Architectural Desktop 2007 |Company: Autodesk,Inc. |WEB Address: www.autodesk.com
 90
      129
 91
        7
280
     0
281
     0
  0
CLASS
  1
AEC_DISP_REP_2D_SECTION
  2
AecDbDispRep2dSection
  3
AecBase70|Product Desc: Autodesk Architectural Desktop 2007 |Company: Autodesk,Inc. |WEB Address: www.autodesk.com
 90
      129
 91
        1
280
     0
281
     0
  0
CLASS
  1
AEC_VARS_DWG_SETUP
  2
AecDbVarsDwgSetup
  3
AecBase70|Product Desc: Autodesk Architectural Desktop 2007 |Company: Autodesk,Inc. |WEB Address: www.autodesk.com
 90
      129
 91
        1
280
     0
281
     0
  0
CLASS
  1
AEC_DISP_PROPS_2D_SECTION
  2
AecDbDispProps2dSection
  3
AecBase70|Product Desc: Autodesk Architectural Desktop 2007 |Company: Autodesk,Inc. |WEB Address: www.autodesk.com
 90
      129
 91
        1
280
     0
281
     0
  0
CLASS
  1
AEC_DISP_REP_ANCHOR
  2
AecDbDispRepAnchor
  3
AecBase70|Product Desc: Autodesk Architectural Desktop 2007 |Company: Autodesk,Inc. |WEB Address: www.autodesk.com
 90
      129
 91
        1
280
     0
281
     0
  0
CLASS
  1
AEC_DISP_REP_ANCHOR_ENT_TO_NODE
  2
AecDbDispRepAnchorEntToNode
  3
AecBase70|Product Desc: Autodesk Architectural Desktop 2007 |Company: Autodesk,Inc. |WEB Address: www.autodesk.com
 90
      129
 91
        1
280
     0
281
     0
  0
CLASS
  1
AEC_DISP_REP_ANCHOR_EXT_TAG_TO_ENT
  2
AecDbDispRepAnchorExtendedTagToEnt
  3
AecBase70|Product Desc: Autodesk Architectural Desktop 2007 |Company: Autodesk,Inc. |WEB Address: www.autodesk.com
 90
      129
 91
        1
280
     0
281
     0
  0
CLASS
  1
AEC_DISP_REP_CLIP_VOLUME_MODEL
  2
AecDbDispRepClipVolModel
  3
AecBase70|Product Desc: Autodesk Architectural Desktop 2007 |Company: Autodesk,Inc. |WEB Address: www.autodesk.com
 90
      129
 91
        1
280
     0
281
     0
  0
CLASS
  1
AEC_DISP_PROPS_CLIP_VOLUME
  2
AecDbDispPropsClipVol
  3
AecBase70|Product Desc: Autodesk Architectural Desktop 2007 |Company: Autodesk,Inc. |WEB Address: www.autodesk.com
 90
      129
 91
       12
280
     0
281
     0
  0
CLASS
  1
AEC_DISP_REP_LAYOUT_GRID2D
  2
AecDbDispRepLayoutGrid2d
  3
AecBase70|Product Desc: Autodesk Architectural Desktop 2007 |Company: Autodesk,Inc. |WEB Address: www.autodesk.com
 90
      129
 91
        1
280
     0
281
     0
  0
CLASS
  1
AEC_DISP_PROPS_LAYOUT_GRID2D
  2
AecDbDispPropsLayoutGrid2d
  3
AecBase70|Product Desc: Autodesk Architectural Desktop 2007 |Company: Autodesk,Inc. |WEB Address: www.autodesk.com
 90
      129
 91
       11
280
     0
281
     0
  0
CLASS
  1
AEC_DISP_REP_EDITINPLACEPROFILE
  2
AecDbDispRepEditInPlaceProfile
  3
AecBase70|Product Desc: Autodesk Architectural Desktop 2007 |Company: Autodesk,Inc. |WEB Address: www.autodesk.com
 90
      129
 91
        1
280
     0
281
     0
  0
CLASS
  1
AEC_DISP_PROPS_EDITINPLACEPROFILE_MODEL
  2
AecDbDispPropsEditInPlaceProfile
  3
AecBase70|Product Desc: Autodesk Architectural Desktop 2007 |Company: Autodesk,Inc. |WEB Address: www.autodesk.com
 90
      129
 91
        1
280
     0
281
     0
  0
CLASS
  1
AEC_DISP_REP_CLIP_VOLUME_PLAN
  2
AecDbDispRepClipVolPlan
  3
AecBase70|Product Desc: Autodesk Architectural Desktop 2007 |Company: Autodesk,Inc. |WEB Address: www.autodesk.com
 90
      129
 91
        1
280
     0
281
     0
  0
CLASS
  1
AEC_DISP_REP_ENT_REF
  2
AecDbDispRepEntRef
  3
AecBase70|Product Desc: Autodesk Architectural Desktop 2007 |Company: Autodesk,Inc. |WEB Address: www.autodesk.com
 90
      129
 91
        1
280
     0
281
     0
  0
CLASS
  1
AEC_DISP_PROPS_ENT_REF
  2
AecDbDispPropsEntRef
  3
AecBase70|Product Desc: Autodesk Architectural Desktop 2007 |Company: Autodesk,Inc. |WEB Address: www.autodesk.com
 90
      129
 91
        1
280
     0
281
     0
  0
CLASS
  1
AEC_DISP_REP_LAYOUT_CURVE
  2
AecDbDispRepLayoutCurve
  3
AecBase70|Product Desc: Autodesk Architectural Desktop 2007 |Company: Autodesk,Inc. |WEB Address: www.autodesk.com
 90
      129
 91
        1
280
     0
281
     0
  0
CLASS
  1
AEC_DISP_PROPS_LAYOUT_CURVE
  2
AecDbDispPropsLayoutCurve
  3
AecBase70|Product Desc: Autodesk Architectural Desktop 2007 |Company: Autodesk,Inc. |WEB Address: www.autodesk.com
 90
      129
 91
        1
280
     0
281
     0
  0
CLASS
  1
AEC_DISP_REP_CLIP_VOLUME_RESULT_SUBDIV
  2
AecDbDispRepClipVolResSubDiv
  3
AecBase70|Product Desc: Autodesk Architectural Desktop 2007 |Company: Autodesk,Inc. |WEB Address: www.autodesk.com
 90
      129
 91
        1
280
     0
281
     0
  0
CLASS
  1
AEC_DISP_PROPS_CLIP_VOLUME_RESULT
  2
AecDbDispPropsClipVolResSubDiv
  3
AecBase70|Product Desc: Autodesk Architectural Desktop 2007 |Company: Autodesk,Inc. |WEB Address: www.autodesk.com
 90
      129
 91
        2
280
     0
281
     0
  0
CLASS
  1
AEC_DISP_REP_LAYOUT_GRID3D
  2
AecDbDispRepLayoutGrid3d
  3
AecBase70|Product Desc: Autodesk Architectural Desktop 2007 |Company: Autodesk,Inc. |WEB Address: www.autodesk.com
 90
      129
 91
        1
280
     0
281
     0
  0
CLASS
  1
AEC_DISP_PROPS_LAYOUT_GRID3D
  2
AecDbDispPropsLayoutGrid3d
  3
AecBase70|Product Desc: Autodesk Architectural Desktop 2007 |Company: Autodesk,Inc. |WEB Address: www.autodesk.com
 90
      129
 91
        1
280
     0
281
     0
  0
CLASS
  1
AEC_DISP_REP_MVBLOCK_REF_MODEL
  2
AecDbDispRepMvBlockRefModel
  3
AecBase70|Product Desc: Autodesk Architectural Desktop 2007 |Company: Autodesk,Inc. |WEB Address: www.autodesk.com
 90
      129
 91
        1
280
     0
281
     0
  0
CLASS
  1
AEC_DISP_REP_MASKBLOCK_REF
  2
AecDbDispRepMaskBlockRef
  3
AecBase70|Product Desc: Autodesk Architectural Desktop 2007 |Company: Autodesk,Inc. |WEB Address: www.autodesk.com
 90
      129
 91
        1
280
     0
281
     0
  0
CLASS
  1
AEC_DISP_PROPS_MASKBLOCK
  2
AecDbDispPropsMaskBlock
  3
AecBase70|Product Desc: Autodesk Architectural Desktop 2007 |Company: Autodesk,Inc. |WEB Address: www.autodesk.com
 90
      129
 91
        2
280
     0
281
     0
  0
CLASS
  1
AEC_DISP_REP_CLIP_VOLUME_RESULT
  2
AecDbDispRepClipVolResult
  3
AecBase70|Product Desc: Autodesk Architectural Desktop 2007 |Company: Autodesk,Inc. |WEB Address: www.autodesk.com
 90
      129
 91
        1
280
     0
281
     0
  0
CLASS
  1
AEC_DISP_REP_MVBLOCK_REF
  2
AecDbDispRepMvBlockRef
  3
AecBase70|Product Desc: Autodesk Architectural Desktop 2007 |Company: Autodesk,Inc. |WEB Address: www.autodesk.com
 90
      129
 91
        2
280
     0
281
     0
  0
CLASS
  1
AEC_DISP_REP_POLYGON_MODEL
  2
AecDbDispRepPolygonModel
  3
AecBase70|Product Desc: Autodesk Architectural Desktop 2007 |Company: Autodesk,Inc. |WEB Address: www.autodesk.com
 90
      129
 91
        1
280
     0
281
     0
  0
CLASS
  1
AEC_DISP_PROPS_POLYGON_MODEL
  2
AecDbDispPropsPolygonModel
  3
AecBase70|Product Desc: Autodesk Architectural Desktop 2007 |Company: Autodesk,Inc. |WEB Address: www.autodesk.com
 90
      129
 91
        1
280
     0
281
     0
  0
CLASS
  1
AEC_DISP_REP_POLYGON_TRUECOLOUR
  2
AecDbDispRepPolygonTrueColour
  3
AecBase70|Product Desc: Autodesk Architectural Desktop 2007 |Company: Autodesk,Inc. |WEB Address: www.autodesk.com
 90
      129
 91
        1
280
     0
281
     0
  0
CLASS
  1
AEC_DISP_PROPS_POLYGON_TRUECOLOUR
  2
AecDbDispPropsPolygonTrueColour
  3
AecBase70|Product Desc: Autodesk Architectural Desktop 2007 |Company: Autodesk,Inc. |WEB Address: www.autodesk.com
 90
      129
 91
        1
280
     0
281
     0
  0
CLASS
  1
AEC_DISP_REP_MATERIAL
  2
AecDbDispRepMaterial
  3
AecBase70|Product Desc: Autodesk Architectural Desktop 2007 |Company: Autodesk,Inc. |WEB Address: www.autodesk.com
 90
      129
 91
        2
280
     0
281
     0
  0
CLASS
  1
AEC_DISP_PROPS_MATERIAL
  2
AecDbDispPropsMaterial
  3
AecBase70|Product Desc: Autodesk Architectural Desktop 2007 |Company: Autodesk,Inc. |WEB Address: www.autodesk.com
 90
      129
 91
        2
280
     0
281
     0
  0
CLASS
  1
AEC_DISP_REP_DISPLAYTHEME
  2
AecDbDispRepDisplayTheme
  3
AecBase70|Product Desc: Autodesk Architectural Desktop 2007 |Company: Autodesk,Inc. |WEB Address: www.autodesk.com
 90
      129
 91
        1
280
     0
281
     0
  0
CLASS
  1
AEC_DISP_PROPS_DISPLAYTHEME
  2
AecDbDispPropsDisplayTheme
  3
AecBase70|Product Desc: Autodesk Architectural Desktop 2007 |Company: Autodesk,Inc. |WEB Address: www.autodesk.com
 90
      129
 91
        1
280
     0
281
     0
  0
CLASS
  1
AEC_DISP_REP_SLICE
  2
AecDbDispRepSlice
  3
AecBase70|Product Desc: Autodesk Architectural Desktop 2007 |Company: Autodesk,Inc. |WEB Address: www.autodesk.com
 90
      129
 91
        1
280
     0
281
     0
  0
CLASS
  1
AEC_DISP_PROPS_SLICE
  2
AecDbDispPropsSlice
  3
AecBase70|Product Desc: Autodesk Architectural Desktop 2007 |Company: Autodesk,Inc. |WEB Address: www.autodesk.com
 90
      129
 91
        1
280
     0
281
     0
  0
CLASS
  1
AEC_DISP_REP_MASS_ELEM_SCHEM
  2
AecDbDispRepMassElemSchem
  3
AecBaseEx70|Product Desc: Autodesk Architectural Desktop 2007 |Company: Autodesk,Inc. |WEB Address: www.autodesk.com
 90
      129
 91
        1
280
     0
281
     0
  0
CLASS
  1
AEC_DISP_PROPS_MASS_ELEM_MODEL
  2
AecDbDispPropsMassElem
  3
AecBaseEx70|Product Desc: Autodesk Architectural Desktop 2007 |Company: Autodesk,Inc. |WEB Address: www.autodesk.com
 90
      129
 91
        3
280
     0
281
     0
  0
CLASS
  1
AEC_DISP_REP_MASS_GROUP_PLAN
  2
AecDbDispRepMassGroupPlan
  3
AecBaseEx70|Product Desc: Autodesk Architectural Desktop 2007 |Company: Autodesk,Inc. |WEB Address: www.autodesk.com
 90
      129
 91
        1
280
     0
281
     0
  0
CLASS
  1
AEC_DISP_PROPS_MASS_GROUP
  2
AecDbDispPropsMassGroup
  3
AecBaseEx70|Product Desc: Autodesk Architectural Desktop 2007 |Company: Autodesk,Inc. |WEB Address: www.autodesk.com
 90
      129
 91
        3
280
     0
281
     0
  0
CLASS
  1
AEC_DISP_REP_MASS_GROUP_MODEL
  2
AecDbDispRepMassGroupModel
  3
AecBaseEx70|Product Desc: Autodesk Architectural Desktop 2007 |Company: Autodesk,Inc. |WEB Address: www.autodesk.com
 90
      129
 91
        1
280
     0
281
     0
  0
CLASS
  1
AEC_DISP_REP_MASS_ELEM_MODEL
  2
AecDbDispRepMassElemModel
  3
AecBaseEx70|Product Desc: Autodesk Architectural Desktop 2007 |Company: Autodesk,Inc. |WEB Address: www.autodesk.com
 90
      129
 91
        1
280
     0
281
     0
  0
CLASS
  1
AEC_DISP_REP_WINDOW_ELEV
  2
AecDbDispRepWindowElev
  3
AecArchBase70|Product Desc: Autodesk Architectural Desktop 2007 |Company: Autodesk,Inc. |WEB Address: www.autodesk.com
 90
      129
 91
        1
280
     0
281
     0
  0
CLASS
  1
AEC_DISP_PROPS_WINDOW
  2
AecDbDispPropsWindow
  3
AecArchBase70|Product Desc: Autodesk Architectural Desktop 2007 |Company: Autodesk,Inc. |WEB Address: www.autodesk.com
 90
      129
 91
        4
280
     0
281
     0
  0
CLASS
  1
AEC_DISP_REP_WALL_MODEL
  2
AecDbDispRepWallModel
  3
AecArchBase70|Product Desc: Autodesk Architectural Desktop 2007 |Company: Autodesk,Inc. |WEB Address: www.autodesk.com
 90
      129
 91
        1
280
     0
281
     0
  0
CLASS
  1
AEC_DISP_PROPS_WALL_MODEL
  2
AecDbDispPropsWallModel
  3
AecArchBase70|Product Desc: Autodesk Architectural Desktop 2007 |Company: Autodesk,Inc. |WEB Address: www.autodesk.com
 90
      129
 91
        1
280
     0
281
     0
  0
CLASS
  1
AEC_DISP_REP_WINDOW_PLAN_50
  2
AecDbDispRepWindowPlan50
  3
AecArchBase70|Product Desc: Autodesk Architectural Desktop 2007 |Company: Autodesk,Inc. |WEB Address: www.autodesk.com
 90
      129
 91
        1
280
     0
281
     0
  0
CLASS
  1
AEC_DISP_PROPS_WINDOW_PLAN_50
  2
AecDbDispPropsWindowPlan50
  3
AecArchBase70|Product Desc: Autodesk Architectural Desktop 2007 |Company: Autodesk,Inc. |WEB Address: www.autodesk.com
 90
      129
 91
        1
280
     0
281
     0
  0
CLASS
  1
AEC_DISP_REP_WALL_RCP
  2
AecDbDispRepWallRcp
  3
AecArchBase70|Product Desc: Autodesk Architectural Desktop 2007 |Company: Autodesk,Inc. |WEB Address: www.autodesk.com
 90
      129
 91
        1
280
     0
281
     0
  0
CLASS
  1
AEC_DISP_PROPS_WALL_PLAN
  2
AecDbDispPropsWallPlan
  3
AecArchBase70|Product Desc: Autodesk Architectural Desktop 2007 |Company: Autodesk,Inc. |WEB Address: www.autodesk.com
 90
      129
 91
        4
280
     0
281
     0
  0
CLASS
  1
AEC_DISP_REP_WINDOW_PLAN
  2
AecDbDispRepWindowPlan
  3
AecArchBase70|Product Desc: Autodesk Architectural Desktop 2007 |Company: Autodesk,Inc. |WEB Address: www.autodesk.com
 90
      129
 91
        1
280
     0
281
     0
  0
CLASS
  1
AEC_DISP_REP_WINDOW_PLAN_100
  2
AecDbDispRepWindowPlan100
  3
AecArchBase70|Product Desc: Autodesk Architectural Desktop 2007 |Company: Autodesk,Inc. |WEB Address: www.autodesk.com
 90
      129
 91
        1
280
     0
281
     0
  0
CLASS
  1
AEC_DISP_PROPS_WINDOW_PLAN_100
  2
AecDbDispPropsWindowPlan100
  3
AecArchBase70|Product Desc: Autodesk Architectural Desktop 2007 |Company: Autodesk,Inc. |WEB Address: www.autodesk.com
 90
      129
 91
        1
280
     0
281
     0
  0
CLASS
  1
AEC_DISP_REP_WINDOW_SILL_PLAN
  2
AecDbDispRepWindowSillPlan
  3
AecArchBase70|Product Desc: Autodesk Architectural Desktop 2007 |Company: Autodesk,Inc. |WEB Address: www.autodesk.com
 90
      129
 91
        1
280
     0
281
     0
  0
CLASS
  1
AEC_DISP_PROPS_WINDOW_SILL_PLAN
  2
AecDbDispPropsWindowSillPlan
  3
AecArchBase70|Product Desc: Autodesk Architectural Desktop 2007 |Company: Autodesk,Inc. |WEB Address: www.autodesk.com
 90
      129
 91
        1
280
     0
281
     0
  0
CLASS
  1
AEC_DISP_REP_WINDOW_MODEL
  2
AecDbDispRepWindowModel
  3
AecArchBase70|Product Desc: Autodesk Architectural Desktop 2007 |Company: Autodesk,Inc. |WEB Address: www.autodesk.com
 90
      129
 91
        1
280
     0
281
     0
  0
CLASS
  1
AEC_DISP_REP_STAIR_RCP
  2
AecDbDispRepStairRcp
  3
AecArchBase70|Product Desc: Autodesk Architectural Desktop 2007 |Company: Autodesk,Inc. |WEB Address: www.autodesk.com
 90
      129
 91
        1
280
     0
281
     0
  0
CLASS
  1
AEC_DISP_PROPS_STAIR_PLAN
  2
AecDbDispPropsStairPlan
  3
AecArchBase70|Product Desc: Autodesk Architectural Desktop 2007 |Company: Autodesk,Inc. |WEB Address: www.autodesk.com
 90
      129
 91
        2
280
     0
281
     0
  0
CLASS
  1
AEC_DISP_REP_STAIR_PLAN_OVERLAPPING
  2
AecDbDispRepStairPlanOverlapping
  3
AecArchBase70|Product Desc: Autodesk Architectural Desktop 2007 |Company: Autodesk,Inc. |WEB Address: www.autodesk.com
 90
      129
 91
        1
280
     0
281
     0
  0
CLASS
  1
AEC_DISP_PROPS_STAIR_PLAN_OVERLAPPING
  2
AecDbDispPropsStairPlanOverlapping
  3
AecArchBase70|Product Desc: Autodesk Architectural Desktop 2007 |Company: Autodesk,Inc. |WEB Address: www.autodesk.com
 90
      129
 91
        1
280
     0
281
     0
  0
CLASS
  1
AEC_DISP_REP_WINDOWASSEMBLY_SILL_PLAN
  2
AecDbDispRepWindowAssemblySillPlan
  3
AecArchBase70|Product Desc: Autodesk Architectural Desktop 2007 |Company: Autodesk,Inc. |WEB Address: www.autodesk.com
 90
      129
 91
        1
280
     0
281
     0
  0
CLASS
  1
AEC_DISP_PROPS_WINDOW_ASSEMBLY_SILL_PLAN
  2
AecDbDispPropsWindowAssemblySillPlan
  3
AecArchBase70|Product Desc: Autodesk Architectural Desktop 2007 |Company: Autodesk,Inc. |WEB Address: www.autodesk.com
 90
      129
 91
        1
280
     0
281
     0
  0
CLASS
  1
AEC_DISP_REP_WALL_GRAPH
  2
AecDbDispRepWallGraph
  3
AecArchBase70|Product Desc: Autodesk Architectural Desktop 2007 |Company: Autodesk,Inc. |WEB Address: www.autodesk.com
 90
      129
 91
        1
280
     0
281
     0
  0
CLASS
  1
AEC_DISP_PROPS_WALL_GRAPH
  2
AecDbDispPropsWallGraph
  3
AecArchBase70|Product Desc: Autodesk Architectural Desktop 2007 |Company: Autodesk,Inc. |WEB Address: www.autodesk.com
 90
      129
 91
        1
280
     0
281
     0
  0
CLASS
  1
AEC_DISP_REP_WALL_SCHEM
  2
AecDbDispRepWallSchem
  3
AecArchBase70|Product Desc: Autodesk Architectural Desktop 2007 |Company: Autodesk,Inc. |WEB Address: www.autodesk.com
 90
      129
 91
        1
280
     0
281
     0
  0
CLASS
  1
AEC_DISP_PROPS_WALL_SCHEM
  2
AecDbDispPropsWallSchem
  3
AecArchBase70|Product Desc: Autodesk Architectural Desktop 2007 |Company: Autodesk,Inc. |WEB Address: www.autodesk.com
 90
      129
 91
        1
280
     0
281
     0
  0
CLASS
  1
AEC_DISP_REP_WINDOW_ASSEMBLY_MODEL
  2
AecDbDispRepWindowAssemblyModel
  3
AecArchBase70|Product Desc: Autodesk Architectural Desktop 2007 |Company: Autodesk,Inc. |WEB Address: www.autodesk.com
 90
      129
 91
        1
280
     0
281
     0
  0
CLASS
  1
AEC_DISP_PROPS_GRID_ASSEMBLY_MODEL
  2
AecDbDispPropsGridAssemblyModel
  3
AecArchBase70|Product Desc: Autodesk Architectural Desktop 2007 |Company: Autodesk,Inc. |WEB Address: www.autodesk.com
 90
      129
 91
        3
280
     0
281
     0
  0
CLASS
  1
AEC_DISP_REP_WINDOW_RCP
  2
AecDbDispRepWindowRcp
  3
AecArchBase70|Product Desc: Autodesk Architectural Desktop 2007 |Company: Autodesk,Inc. |WEB Address: www.autodesk.com
 90
      129
 91
        1
280
     0
281
     0
  0
CLASS
  1
AEC_DISP_REP_WINDOW_NOMINAL
  2
AecDbDispRepWindowNominal
  3
AecArchBase70|Product Desc: Autodesk Architectural Desktop 2007 |Company: Autodesk,Inc. |WEB Address: www.autodesk.com
 90
      129
 91
        1
280
     0
281
     0
  0
CLASS
  1
AEC_DISP_PROPS_WINDOW_NOMINAL
  2
AecDbDispPropsWindowNominal
  3
AecArchBase70|Product Desc: Autodesk Architectural Desktop 2007 |Company: Autodesk,Inc. |WEB Address: www.autodesk.com
 90
      129
 91
        1
280
     0
281
     0
  0
CLASS
  1
AEC_DISP_REP_BDG_SECTIONLINE_PLAN
  2
AecDbDispRepBdgElevLinePlan
  3
AecArchBase70|Product Desc: Autodesk Architectural Desktop 2007 |Company: Autodesk,Inc. |WEB Address: www.autodesk.com
 90
      129
 91
        1
280
     0
281
     0
  0
CLASS
  1
AEC_AECDBDISPREPCEILINGGRIDPLAN100
  2
AecDbDispRepCeilingGridPlan100
  3
AecArchBase70|Product Desc: Autodesk Architectural Desktop 2007 |Company: Autodesk,Inc. |WEB Address: www.autodesk.com
 90
      129
 91
        1
280
     0
281
     0
  0
CLASS
  1
AEC_AECDBDISPREPBDGELEVLINEPLAN100
  2
AecDbDispRepBdgElevLinePlan100
  3
AecArchBase70|Product Desc: Autodesk Architectural Desktop 2007 |Company: Autodesk,Inc. |WEB Address: www.autodesk.com
 90
      129
 91
        1
280
     0
281
     0
  0
CLASS
  1
AEC_AECDBDISPREPBDGSECTIONLINEPLAN100
  2
AecDbDispRepBdgSectionLinePlan100
  3
AecArchBase70|Product Desc: Autodesk Architectural Desktop 2007 |Company: Autodesk,Inc. |WEB Address: www.autodesk.com
 90
      129
 91
        1
280
     0
281
     0
  0
CLASS
  1
AEC_DISP_REP_CURTAIN_WALL_LAYOUT_PLAN
  2
AecDbDispRepCurtainWallLayoutPlan
  3
AecArchBase70|Product Desc: Autodesk Architectural Desktop 2007 |Company: Autodesk,Inc. |WEB Address: www.autodesk.com
 90
      129
 91
        1
280
     0
281
     0
  0
CLASS
  1
AEC_DISP_PROPS_GRID_ASSEMBLY_PLAN
  2
AecDbDispPropsGridAssemblyPlan
  3
AecArchBase70|Product Desc: Autodesk Architectural Desktop 2007 |Company: Autodesk,Inc. |WEB Address: www.autodesk.com
 90
      129
 91
        9
280
     0
281
     0
  0
CLASS
  1
AEC_DISP_REP_CEILING_GRID
  2
AecDbDispRepCeilingGrid
  3
AecArchBase70|Product Desc: Autodesk Architectural Desktop 2007 |Company: Autodesk,Inc. |WEB Address: www.autodesk.com
 90
      893
 91
        1
280
     0
281
     0
  0
CLASS
  1
AEC_AECDBDISPREPCOLUMNGRIDPLAN100
  2
AecDbDispRepColumnGridPlan100
  3
AecArchBase70|Product Desc: Autodesk Architectural Desktop 2007 |Company: Autodesk,Inc. |WEB Address: www.autodesk.com
 90
      129
 91
        1
280
     0
281
     0
  0
CLASS
  1
AEC_DISP_REP_CURTAIN_WALL_UNIT_PLAN
  2
AecDbDispRepCurtainWallUnitPlan
  3
AecArchBase70|Product Desc: Autodesk Architectural Desktop 2007 |Company: Autodesk,Inc. |WEB Address: www.autodesk.com
 90
      129
 91
        1
280
     0
281
     0
  0
CLASS
  1
AEC_AECDBDISPREPCURTAINWALLUNITPLAN100
  2
AecDbDispRepCurtainWallUnitPlan100
  3
AecArchBase70|Product Desc: Autodesk Architectural Desktop 2007 |Company: Autodesk,Inc. |WEB Address: www.autodesk.com
 90
      129
 91
        1
280
     0
281
     0
  0
CLASS
  1
AEC_DISP_REP_BDG_SECTIONLINE_PLAN
  2
AecDbDispRepBdgSectionLinePlan
  3
AecArchBase70|Product Desc: Autodesk Architectural Desktop 2007 |Company: Autodesk,Inc. |WEB Address: www.autodesk.com
 90
      129
 91
        1
280
     0
281
     0
  0
CLASS
  1
AEC_DISP_REP_COLUMN_GRID
  2
AecDbDispRepColumnGrid
  3
AecArchBase70|Product Desc: Autodesk Architectural Desktop 2007 |Company: Autodesk,Inc. |WEB Address: www.autodesk.com
 90
      129
 91
        1
280
     0
281
     0
  0
CLASS
  1
AEC_AECDBDISPREPCURTAINWALLLAYOUTPLAN100
  2
AecDbDispRepCurtainWallLayoutPlan100
  3
AecArchBase70|Product Desc: Autodesk Architectural Desktop 2007 |Company: Autodesk,Inc. |WEB Address: www.autodesk.com
 90
      129
 91
        1
280
     0
281
     0
  0
CLASS
  1
AEC_AECDBDISPREPMVBLOCKREFPLAN100
  2
AecDbDispRepMvBlockRefPlan100
  3
AecArchBase70|Product Desc: Autodesk Architectural Desktop 2007 |Company: Autodesk,Inc. |WEB Address: www.autodesk.com
 90
      129
 91
        1
280
     0
281
     0
  0
CLASS
  1
AEC_DISP_REP_ROOFSLAB_PLAN
  2
AecDbDispRepRoofSlabPlan
  3
AecArchBase70|Product Desc: Autodesk Architectural Desktop 2007 |Company: Autodesk,Inc. |WEB Address: www.autodesk.com
 90
      129
 91
        1
280
     0
281
     0
  0
CLASS
  1
AEC_DISP_PROPS_ROOFSLAB_PLAN
  2
AecDbDispPropsRoofSlabPlan
  3
AecArchBase70|Product Desc: Autodesk Architectural Desktop 2007 |Company: Autodesk,Inc. |WEB Address: www.autodesk.com
 90
      129
 91
        3
280
     0
281
     0
  0
CLASS
  1
AEC_DISP_REP_ROOF_PLAN
  2
AecDbDispRepRoofPlan
  3
AecArchBase70|Product Desc: Autodesk Architectural Desktop 2007 |Company: Autodesk,Inc. |WEB Address: www.autodesk.com
 90
      129
 91
        1
280
     0
281
     0
  0
CLASS
  1
AEC_DISP_PROPS_ROOF
  2
AecDbDispPropsRoof
  3
AecArchBase70|Product Desc: Autodesk Architectural Desktop 2007 |Company: Autodesk,Inc. |WEB Address: www.autodesk.com
 90
      129
 91
        5
280
     0
281
     0
  0
CLASS
  1
AEC_AECDBDISPREPSLABPLAN100
  2
AecDbDispRepSlabPlan100
  3
AecArchBase70|Product Desc: Autodesk Architectural Desktop 2007 |Company: Autodesk,Inc. |WEB Address: www.autodesk.com
 90
      129
 91
        1
280
     0
281
     0
  0
CLASS
  1
AEC_DISP_PROPS_SLAB_PLAN
  2
AecDbDispPropsSlabPlan
  3
AecArchBase70|Product Desc: Autodesk Architectural Desktop 2007 |Company: Autodesk,Inc. |WEB Address: www.autodesk.com
 90
      129
 91
        3
280
     0
281
     0
  0
CLASS
  1
AEC_DISP_REP_SPACE_PLAN
  2
AecDbDispRepSpacePlan
  3
AecArchBase70|Product Desc: Autodesk Architectural Desktop 2007 |Company: Autodesk,Inc. |WEB Address: www.autodesk.com
 90
      129
 91
        1
280
     0
281
     0
  0
CLASS
  1
AEC_DISP_PROPS_SPACE_PLAN
  2
AecDbDispPropsSpacePlan
  3
AecArchBase70|Product Desc: Autodesk Architectural Desktop 2007 |Company: Autodesk,Inc. |WEB Address: www.autodesk.com
 90
      129
 91
        4
280
     0
281
     0
  0
CLASS
  1
AEC_AECDBDISPREPROOFSLABPLAN100
  2
AecDbDispRepRoofSlabPlan100
  3
AecArchBase70|Product Desc: Autodesk Architectural Desktop 2007 |Company: Autodesk,Inc. |WEB Address: www.autodesk.com
 90
      129
 91
        1
280
     0
281
     0
  0
CLASS
  1
AEC_AECDBDISPREPSPACEPLAN100
  2
AecDbDispRepSpacePlan100
  3
AecArchBase70|Product Desc: Autodesk Architectural Desktop 2007 |Company: Autodesk,Inc. |WEB Address: www.autodesk.com
 90
      129
 91
        1
280
     0
281
     0
  0
CLASS
  1
AEC_AECDBDISPREPWALLPLAN100
  2
AecDbDispRepWallPlan100
  3
AecArchBase70|Product Desc: Autodesk Architectural Desktop 2007 |Company: Autodesk,Inc. |WEB Address: www.autodesk.com
 90
      129
 91
        1
280
     0
281
     0
  0
CLASS
  1
AEC_DISP_REP_SLAB_PLAN
  2
AecDbDispRepSlabPlan
  3
AecArchBase70|Product Desc: Autodesk Architectural Desktop 2007 |Company: Autodesk,Inc. |WEB Address: www.autodesk.com
 90
      129
 91
        1
280
     0
281
     0
  0
CLASS
  1
AEC_DISP_REP_WALL_PLAN
  2
AecDbDispRepWallPlan
  3
AecArchBase70|Product Desc: Autodesk Architectural Desktop 2007 |Company: Autodesk,Inc. |WEB Address: www.autodesk.com
 90
      129
 91
        1
280
     0
281
     0
  0
CLASS
  1
AEC_AECDBDISPREPROOFPLAN100
  2
AecDbDispRepRoofPlan100
  3
AecArchBase70|Product Desc: Autodesk Architectural Desktop 2007 |Company: Autodesk,Inc. |WEB Address: www.autodesk.com
 90
      129
 91
        1
280
     0
281
     0
  0
CLASS
  1
AEC_AECDBDISPREPZONE100
  2
AecDbDispRepZonePlan100
  3
AecArchBase70|Product Desc: Autodesk Architectural Desktop 2007 |Company: Autodesk,Inc. |WEB Address: www.autodesk.com
 90
      129
 91
        1
280
     0
281
     0
  0
CLASS
  1
AEC_DISP_PROPS_ZONE
  2
AecDbDispPropsZone
  3
AecArchBase70|Product Desc: Autodesk Architectural Desktop 2007 |Company: Autodesk,Inc. |WEB Address: www.autodesk.com
 90
      129
 91
        3
280
     0
281
     0
  0
CLASS
  1
AEC_DISP_REP_ZONE
  2
AecDbDispRepZone
  3
AecArchBase70|Product Desc: Autodesk Architectural Desktop 2007 |Company: Autodesk,Inc. |WEB Address: www.autodesk.com
 90
      129
 91
        1
280
     0
281
     0
  0
CLASS
  1
AEC_AECDBDISPREPCURTAINWALLUNITPLAN50
  2
AecDbDispRepCurtainWallUnitPlan50
  3
AecArchBase70|Product Desc: Autodesk Architectural Desktop 2007 |Company: Autodesk,Inc. |WEB Address: www.autodesk.com
 90
      129
 91
        1
280
     0
281
     0
  0
CLASS
  1
AEC_AECDBDISPREPCOLUMNGRIDPLAN50
  2
AecDbDispRepColumnGridPlan50
  3
AecArchBase70|Product Desc: Autodesk Architectural Desktop 2007 |Company: Autodesk,Inc. |WEB Address: www.autodesk.com
 90
      129
 91
        1
280
     0
281
     0
  0
CLASS
  1
AEC_AECDBDISPREPBDGSECTIONLINEPLAN50
  2
AecDbDispRepBdgSectionLinePlan50
  3
AecArchBase70|Product Desc: Autodesk Architectural Desktop 2007 |Company: Autodesk,Inc. |WEB Address: www.autodesk.com
 90
      129
 91
        1
280
     0
281
     0
  0
CLASS
  1
AEC_AECDBDISPREPMVBLOCKREFPLAN50
  2
AecDbDispRepMvBlockRefPlan50
  3
AecArchBase70|Product Desc: Autodesk Architectural Desktop 2007 |Company: Autodesk,Inc. |WEB Address: www.autodesk.com
 90
      129
 91
        1
280
     0
281
     0
  0
CLASS
  1
AEC_DISP_REP_WINDOW_ASSEMBLY_PLAN
  2
AecDbDispRepWindowAssemblyPlan
  3
AecArchBase70|Product Desc: Autodesk Architectural Desktop 2007 |Company: Autodesk,Inc. |WEB Address: www.autodesk.com
 90
      129
 91
        1
280
     0
281
     0
  0
CLASS
  1
AEC_AECDBDISPREPWINDOWASSEMBLYPLAN100
  2
AecDbDispRepWindowAssemblyPlan100
  3
AecArchBase70|Product Desc: Autodesk Architectural Desktop 2007 |Company: Autodesk,Inc. |WEB Address: www.autodesk.com
 90
      129
 91
        1
280
     0
281
     0
  0
CLASS
  1
AEC_AECDBDISPREPCEILINGGRIDPLAN50
  2
AecDbDispRepCeilingGridPlan50
  3
AecArchBase70|Product Desc: Autodesk Architectural Desktop 2007 |Company: Autodesk,Inc. |WEB Address: www.autodesk.com
 90
      129
 91
        1
280
     0
281
     0
  0
CLASS
  1
AEC_AECDBDISPREPROOFPLAN50
  2
AecDbDispRepRoofPlan50
  3
AecArchBase70|Product Desc: Autodesk Architectural Desktop 2007 |Company: Autodesk,Inc. |WEB Address: www.autodesk.com
 90
      129
 91
        1
280
     0
281
     0
  0
CLASS
  1
AEC_AECDBDISPREPSLABPLAN50
  2
AecDbDispRepSlabPlan50
  3
AecArchBase70|Product Desc: Autodesk Architectural Desktop 2007 |Company: Autodesk,Inc. |WEB Address: www.autodesk.com
 90
      129
 91
        1
280
     0
281
     0
  0
CLASS
  1
AEC_AECDBDISPREPBDGELEVLINEPLAN50
  2
AecDbDispRepBdgElevLinePlan50
  3
AecArchBase70|Product Desc: Autodesk Architectural Desktop 2007 |Company: Autodesk,Inc. |WEB Address: www.autodesk.com
 90
      129
 91
        1
280
     0
281
     0
  0
CLASS
  1
AEC_AECDBDISPREPCURTAINWALLLAYOUTPLAN50
  2
AecDbDispRepCurtainWallLayoutPlan50
  3
AecArchBase70|Product Desc: Autodesk Architectural Desktop 2007 |Company: Autodesk,Inc. |WEB Address: www.autodesk.com
 90
      129
 91
        1
280
     0
281
     0
  0
CLASS
  1
AEC_AECDBDISPREPROOFSLABPLAN50
  2
AecDbDispRepRoofSlabPlan50
  3
AecArchBase70|Product Desc: Autodesk Architectural Desktop 2007 |Company: Autodesk,Inc. |WEB Address: www.autodesk.com
 90
      129
 91
        1
280
     0
281
     0
  0
CLASS
  1
AEC_AECDBDISPREPWALLPLAN50
  2
AecDbDispRepWallPlan50
  3
AecArchBase70|Product Desc: Autodesk Architectural Desktop 2007 |Company: Autodesk,Inc. |WEB Address: www.autodesk.com
 90
      129
 91
        1
280
     0
281
     0
  0
CLASS
  1
AEC_AECDBDISPREPSPACEPLAN50
  2
AecDbDispRepSpacePlan50
  3
AecArchBase70|Product Desc: Autodesk Architectural Desktop 2007 |Company: Autodesk,Inc. |WEB Address: www.autodesk.com
 90
      129
 91
        1
280
     0
281
     0
  0
CLASS
  1
AEC_AECDBDISPREPZONE50
  2
AecDbDispRepZonePlan50
  3
AecArchBase70|Product Desc: Autodesk Architectural Desktop 2007 |Company: Autodesk,Inc. |WEB Address: www.autodesk.com
 90
      129
 91
        1
280
     0
281
     0
  0
CLASS
  1
AEC_AECDBDISPREPWINDOWASSEMBLYPLAN50
  2
AecDbDispRepWindowAssemblyPlan50
  3
AecArchBase70|Product Desc: Autodesk Architectural Desktop 2007 |Company: Autodesk,Inc. |WEB Address: www.autodesk.com
 90
      129
 91
        1
280
     0
281
     0
  0
CLASS
  1
AEC_DISP_REP_ANCHOR_BUB_TO_GRID
  2
AecDbDispRepAnchorBubToGrid
  3
AecArchBase70|Product Desc: Autodesk Architectural Desktop 2007 |Company: Autodesk,Inc. |WEB Address: www.autodesk.com
 90
      129
 91
        1
280
     0
281
     0
  0
CLASS
  1
AEC_DISP_REP_CEILING_GRID_RCP
  2
AecDbDispRepCeilingGridRcp
  3
AecArchBase70|Product Desc: Autodesk Architectural Desktop 2007 |Company: Autodesk,Inc. |WEB Address: www.autodesk.com
 90
      129
 91
        1
280
     0
281
     0
  0
CLASS
  1
AEC_DISP_REP_ANCHOR_BUB_TO_GRID_RCP
  2
AecDbDispRepAnchorBubToGridRcp
  3
AecArchBase70|Product Desc: Autodesk Architectural Desktop 2007 |Company: Autodesk,Inc. |WEB Address: www.autodesk.com
 90
      129
 91
        1
280
     0
281
     0
  0
CLASS
  1
AEC_DISP_REP_CURTAIN_WALL_UNIT_MODEL
  2
AecDbDispRepCurtainWallUnitModel
  3
AecArchBase70|Product Desc: Autodesk Architectural Desktop 2007 |Company: Autodesk,Inc. |WEB Address: www.autodesk.com
 90
      129
 91
        1
280
     0
281
     0
  0
CLASS
  1
AEC_DB_DISP_REP_DIM_GROUP_PLAN100
  2
AecDbDispRepDimGroupPlan100
  3
AecArchBase70|Product Desc: Autodesk Architectural Desktop 2007 |Company: Autodesk,Inc. |WEB Address: www.autodesk.com
 90
      129
 91
        1
280
     0
281
     0
  0
CLASS
  1
AEC_DISP_PROPS_DIM
  2
AecDbDispPropsDimGroup
  3
AecArchBase70|Product Desc: Autodesk Architectural Desktop 2007 |Company: Autodesk,Inc. |WEB Address: www.autodesk.com
 90
      129
 91
        3
280
     0
281
     0
  0
CLASS
  1
AEC_DISP_REP_BDG_ELEVLINE_RCP
  2
AecDbDispRepBdgElevLineRcp
  3
AecArchBase70|Product Desc: Autodesk Architectural Desktop 2007 |Company: Autodesk,Inc. |WEB Address: www.autodesk.com
 90
      129
 91
        1
280
     0
281
     0
  0
CLASS
  1
AEC_DISP_REP_BDG_SECTION_MODEL
  2
AecDbDispRepBdgSectionModel
  3
AecArchBase70|Product Desc: Autodesk Architectural Desktop 2007 |Company: Autodesk,Inc. |WEB Address: www.autodesk.com
 90
      129
 91
        1
280
     0
281
     0
  0
CLASS
  1
AEC_DISP_REP_BDG_SECTION_SUBDIV
  2
AecDbDispRepBdgSectionSubDiv
  3
AecArchBase70|Product Desc: Autodesk Architectural Desktop 2007 |Company: Autodesk,Inc. |WEB Address: www.autodesk.com
 90
      129
 91
        1
280
     0
281
     0
  0
CLASS
  1
AEC_DISP_REP_CEILING_GRID_MODEL
  2
AecDbDispRepCeilingGridModel
  3
AecArchBase70|Product Desc: Autodesk Architectural Desktop 2007 |Company: Autodesk,Inc. |WEB Address: www.autodesk.com
 90
      129
 91
        1
280
     0
281
     0
  0
CLASS
  1
AEC_DISP_REP_BDG_SECTIONLINE_MODEL
  2
AecDbDispRepBdgSectionLineModel
  3
AecArchBase70|Product Desc: Autodesk Architectural Desktop 2007 |Company: Autodesk,Inc. |WEB Address: www.autodesk.com
 90
      129
 91
        1
280
     0
281
     0
  0
CLASS
  1
AEC_DISP_REP_COLUMN_GRID_MODEL
  2
AecDbDispRepColumnGridModel
  3
AecArchBase70|Product Desc: Autodesk Architectural Desktop 2007 |Company: Autodesk,Inc. |WEB Address: www.autodesk.com
 90
      129
 91
        1
280
     0
281
     0
  0
CLASS
  1
AEC_DISP_REP_COLUMN_GRID_RCP
  2
AecDbDispRepColumnGridRcp
  3
AecArchBase70|Product Desc: Autodesk Architectural Desktop 2007 |Company: Autodesk,Inc. |WEB Address: www.autodesk.com
 90
      129
 91
        1
280
     0
281
     0
  0
CLASS
  1
AEC_DISP_REP_BDG_SECTIONLINE_RCP
  2
AecDbDispRepBdgSectionLineRcp
  3
AecArchBase70|Product Desc: Autodesk Architectural Desktop 2007 |Company: Autodesk,Inc. |WEB Address: www.autodesk.com
 90
      129
 91
        1
280
     0
281
     0
  0
CLASS
  1
AEC_DISP_REP_BDG_ELEVLINE_MODEL
  2
AecDbDispRepBdgElevLineModel
  3
AecArchBase70|Product Desc: Autodesk Architectural Desktop 2007 |Company: Autodesk,Inc. |WEB Address: www.autodesk.com
 90
      129
 91
        1
280
     0
281
     0
  0
CLASS
  1
AEC_DISP_REP_CURTAIN_WALL_LAYOUT_MODEL
  2
AecDbDispRepCurtainWallLayoutModel
  3
AecArchBase70|Product Desc: Autodesk Architectural Desktop 2007 |Company: Autodesk,Inc. |WEB Address: www.autodesk.com
 90
      129
 91
        1
280
     0
281
     0
  0
CLASS
  1
AEC_DISP_REP_ANCHOR_BUB_TO_GRID_MODEL
  2
AecDbDispRepAnchorBubToGridMdl
  3
AecArchBase70|Product Desc: Autodesk Architectural Desktop 2007 |Company: Autodesk,Inc. |WEB Address: www.autodesk.com
 90
      129
 91
        1
280
     0
281
     0
  0
CLASS
  1
AEC_DISP_REP_DOOR_THRESHOLD_SYMBOL_PLAN
  2
AecDbDispRepDoorThresholdSymbolPlan
  3
AecArchBase70|Product Desc: Autodesk Architectural Desktop 2007 |Company: Autodesk,Inc. |WEB Address: www.autodesk.com
 90
      129
 91
        1
280
     0
281
     0
  0
CLASS
  1
AEC_DISP_PROPS_DOOR_THRESHOLD_SYMBOL_PLAN
  2
AecDbDispPropsDoorThresholdSymbolPlan
  3
AecArchBase70|Product Desc: Autodesk Architectural Desktop 2007 |Company: Autodesk,Inc. |WEB Address: www.autodesk.com
 90
      129
 91
        1
280
     0
281
     0
  0
CLASS
  1
AEC_DISP_REP_DOOR_PLAN_HEKTO
  2
AecDbDispRepDoorPlanHekto
  3
AecArchBase70|Product Desc: Autodesk Architectural Desktop 2007 |Company: Autodesk,Inc. |WEB Address: www.autodesk.com
 90
      129
 91
        1
280
     0
281
     0
  0
CLASS
  1
AEC_DISP_PROPS_DOOR_PLAN_100
  2
AecDbDispPropsDoorPlan100
  3
AecArchBase70|Product Desc: Autodesk Architectural Desktop 2007 |Company: Autodesk,Inc. |WEB Address: www.autodesk.com
 90
      129
 91
        1
280
     0
281
     0
  0
CLASS
  1
AEC_DISPREPAECDBDISPREPMASSGROUPPLAN50
  2
AecDbDispRepMassGroupPlan50
  3
AecArchBase70|Product Desc: Autodesk Architectural Desktop 2007 |Company: Autodesk,Inc. |WEB Address: www.autodesk.com
 90
      129
 91
        1
280
     0
281
     0
  0
CLASS
  1
AEC_DISPROPSMASSGROUPPLANCOMMON
  2
AecDbDispPropsMassGroupPlanCommon
  3
AecArchBase70|Product Desc: Autodesk Architectural Desktop 2007 |Company: Autodesk,Inc. |WEB Address: www.autodesk.com
 90
      129
 91
        2
280
     0
281
     0
  0
CLASS
  1
AEC_DISP_REP_MASS_GROUP_RCP
  2
AecDbDispRepMassGroupRcp
  3
AecArchBase70|Product Desc: Autodesk Architectural Desktop 2007 |Company: Autodesk,Inc. |WEB Address: www.autodesk.com
 90
      129
 91
        1
280
     0
281
     0
  0
CLASS
  1
AEC_DB_DISP_REP_DIM_GROUP_PLAN50
  2
AecDbDispRepDimGroupPlan50
  3
AecArchBase70|Product Desc: Autodesk Architectural Desktop 2007 |Company: Autodesk,Inc. |WEB Address: www.autodesk.com
 90
      129
 91
        1
280
     0
281
     0
  0
CLASS
  1
AEC_DISP_REP_DOOR_MODEL
  2
AecDbDispRepDoorModel
  3
AecArchBase70|Product Desc: Autodesk Architectural Desktop 2007 |Company: Autodesk,Inc. |WEB Address: www.autodesk.com
 90
      129
 91
        1
280
     0
281
     0
  0
CLASS
  1
AEC_DISP_PROPS_DOOR
  2
AecDbDispPropsDoor
  3
AecArchBase70|Product Desc: Autodesk Architectural Desktop 2007 |Company: Autodesk,Inc. |WEB Address: www.autodesk.com
 90
      129
 91
        4
280
     0
281
     0
  0
CLASS
  1
AEC_DISP_REP_DOOR_PLAN_50
  2
AecDbDispRepDoorPlan50
  3
AecArchBase70|Product Desc: Autodesk Architectural Desktop 2007 |Company: Autodesk,Inc. |WEB Address: www.autodesk.com
 90
      129
 91
        1
280
     0
281
     0
  0
CLASS
  1
AEC_DISP_PROPS_DOOR_PLAN_50
  2
AecDbDispPropsDoorPlan50
  3
AecArchBase70|Product Desc: Autodesk Architectural Desktop 2007 |Company: Autodesk,Inc. |WEB Address: www.autodesk.com
 90
      129
 91
        1
280
     0
281
     0
  0
CLASS
  1
AEC_DISP_REP_DOOR_THRESHOLD_PLAN
  2
AecDbDispRepDoorThresholdPlan
  3
AecArchBase70|Product Desc: Autodesk Architectural Desktop 2007 |Company: Autodesk,Inc. |WEB Address: www.autodesk.com
 90
      129
 91
        1
280
     0
281
     0
  0
CLASS
  1
AEC_DISP_PROPS_DOOR_THRESHOLD_PLAN
  2
AecDbDispPropsDoorThresholdPlan
  3
AecArchBase70|Product Desc: Autodesk Architectural Desktop 2007 |Company: Autodesk,Inc. |WEB Address: www.autodesk.com
 90
      129
 91
        1
280
     0
281
     0
  0
CLASS
  1
AEC_DISP_REP_MASKBLOCK_REF_RCP
  2
AecDbDispRepMaskBlockRefRcp
  3
AecArchBase70|Product Desc: Autodesk Architectural Desktop 2007 |Company: Autodesk,Inc. |WEB Address: www.autodesk.com
 90
      129
 91
        1
280
     0
281
     0
  0
CLASS
  1
AEC_DISP_REP_DOOR_ELEV
  2
AecDbDispRepDoorElev
  3
AecArchBase70|Product Desc: Autodesk Architectural Desktop 2007 |Company: Autodesk,Inc. |WEB Address: www.autodesk.com
 90
      129
 91
        1
280
     0
281
     0
  0
CLASS
  1
AEC_DISPREPAECDBDISPREPMASSELEMPLAN50
  2
AecDbDispRepMassElemPlan50
  3
AecArchBase70|Product Desc: Autodesk Architectural Desktop 2007 |Company: Autodesk,Inc. |WEB Address: www.autodesk.com
 90
      129
 91
        1
280
     0
281
     0
  0
CLASS
  1
AEC_DISPROPSMASSELEMPLANCOMMON
  2
AecDbDispPropsMassElemPlanCommon
  3
AecArchBase70|Product Desc: Autodesk Architectural Desktop 2007 |Company: Autodesk,Inc. |WEB Address: www.autodesk.com
 90
      129
 91
        2
280
     0
281
     0
  0
CLASS
  1
AEC_DISP_REP_DOOR_NOMINAL
  2
AecDbDispRepDoorNominal
  3
AecArchBase70|Product Desc: Autodesk Architectural Desktop 2007 |Company: Autodesk,Inc. |WEB Address: www.autodesk.com
 90
      129
 91
        1
280
     0
281
     0
  0
CLASS
  1
AEC_DISP_PROPS_DOOR_NOMINAL
  2
AecDbDispPropsDoorNominal
  3
AecArchBase70|Product Desc: Autodesk Architectural Desktop 2007 |Company: Autodesk,Inc. |WEB Address: www.autodesk.com
 90
      129
 91
        1
280
     0
281
     0
  0
CLASS
  1
AEC_DISPREPAECDBDISPREPMASSELEMPLAN100
  2
AecDbDispRepMassElemPlan100
  3
AecArchBase70|Product Desc: Autodesk Architectural Desktop 2007 |Company: Autodesk,Inc. |WEB Address: www.autodesk.com
 90
      129
 91
        1
280
     0
281
     0
  0
CLASS
  1
AEC_DISP_REP_MASS_ELEM_RCP
  2
AecDbDispRepMassElemRcp
  3
AecArchBase70|Product Desc: Autodesk Architectural Desktop 2007 |Company: Autodesk,Inc. |WEB Address: www.autodesk.com
 90
      129
 91
        1
280
     0
281
     0
  0
CLASS
  1
AEC_DISP_REP_DOOR_PLAN
  2
AecDbDispRepDoorPlan
  3
AecArchBase70|Product Desc: Autodesk Architectural Desktop 2007 |Company: Autodesk,Inc. |WEB Address: www.autodesk.com
 90
      129
 91
        1
280
     0
281
     0
  0
CLASS
  1
AEC_DISP_REP_DOOR_RCP
  2
AecDbDispRepDoorRcp
  3
AecArchBase70|Product Desc: Autodesk Architectural Desktop 2007 |Company: Autodesk,Inc. |WEB Address: www.autodesk.com
 90
      129
 91
        1
280
     0
281
     0
  0
CLASS
  1
AEC_DISPREPAECDBDISPREPMASSGROUPPLAN100
  2
AecDbDispRepMassGroupPlan100
  3
AecArchBase70|Product Desc: Autodesk Architectural Desktop 2007 |Company: Autodesk,Inc. |WEB Address: www.autodesk.com
 90
      129
 91
        1
280
     0
281
     0
  0
CLASS
  1
AEC_DB_DISP_REP_DIM_GROUP_PLAN
  2
AecDbDispRepDimGroupPlan
  3
AecArchBase70|Product Desc: Autodesk Architectural Desktop 2007 |Company: Autodesk,Inc. |WEB Address: www.autodesk.com
 90
      129
 91
        1
280
     0
281
     0
  0
CLASS
  1
AEC_DISP_REP_OPENING_MODEL
  2
AecDbDispRepOpeningModel
  3
AecArchBase70|Product Desc: Autodesk Architectural Desktop 2007 |Company: Autodesk,Inc. |WEB Address: www.autodesk.com
 90
      129
 91
        1
280
     0
281
     0
  0
CLASS
  1
AEC_DISP_PROPS_OPENING
  2
AecDbDispPropsOpening
  3
AecArchBase70|Product Desc: Autodesk Architectural Desktop 2007 |Company: Autodesk,Inc. |WEB Address: www.autodesk.com
 90
      129
 91
        2
280
     0
281
     0
  0
CLASS
  1
AEC_DISPREPAECDBDISPREPOPENINGPLAN50
  2
AecDbDispRepOpeningPlan50
  3
AecArchBase70|Product Desc: Autodesk Architectural Desktop 2007 |Company: Autodesk,Inc. |WEB Address: www.autodesk.com
 90
      129
 91
        1
280
     0
281
     0
  0
CLASS
  1
AEC_DISPROPSOPENINGPLANCOMMONHATCHED
  2
AecDbDispPropsOpeningPlanCommonHatched
  3
AecArchBase70|Product Desc: Autodesk Architectural Desktop 2007 |Company: Autodesk,Inc. |WEB Address: www.autodesk.com
 90
      129
 91
        2
280
     0
281
     0
  0
CLASS
  1
AEC_DISPREPAECDBDISPREPOPENINGPLANREFLECTED
  2
AecDbDispRepOpeningPlanReflected
  3
AecArchBase70|Product Desc: Autodesk Architectural Desktop 2007 |Company: Autodesk,Inc. |WEB Address: www.autodesk.com
 90
      129
 91
        1
280
     0
281
     0
  0
CLASS
  1
AEC_DISPROPSOPENINGPLANCOMMON
  2
AecDbDispPropsOpeningPlanCommon
  3
AecArchBase70|Product Desc: Autodesk Architectural Desktop 2007 |Company: Autodesk,Inc. |WEB Address: www.autodesk.com
 90
      129
 91
        1
280
     0
281
     0
  0
CLASS
  1
AEC_DISP_REP_OPENING
  2
AecDbDispRepOpening
  3
AecArchBase70|Product Desc: Autodesk Architectural Desktop 2007 |Company: Autodesk,Inc. |WEB Address: www.autodesk.com
 90
      129
 91
        1
280
     0
281
     0
  0
CLASS
  1
AEC_DISP_REP_MVBLOCK_REF_RCP
  2
AecDbDispRepMvBlockRefRcp
  3
AecArchBase70|Product Desc: Autodesk Architectural Desktop 2007 |Company: Autodesk,Inc. |WEB Address: www.autodesk.com
 90
      129
 91
        1
280
     0
281
     0
  0
CLASS
  1
AEC_DISPREPAECDBDISPREPOPENINGPLAN100
  2
AecDbDispRepOpeningPlan100
  3
AecArchBase70|Product Desc: Autodesk Architectural Desktop 2007 |Company: Autodesk,Inc. |WEB Address: www.autodesk.com
 90
      129
 91
        1
280
     0
281
     0
  0
CLASS
  1
AEC_DISPREPAECDBDISPREPOPENINGSILLPLAN
  2
AecDbDispRepOpeningSillPlan
  3
AecArchBase70|Product Desc: Autodesk Architectural Desktop 2007 |Company: Autodesk,Inc. |WEB Address: www.autodesk.com
 90
      129
 91
        1
280
     0
281
     0
  0
CLASS
  1
AEC_DISPROPSOPENINGSILLPLAN
  2
AecDbDispPropsOpeningSillPlan
  3
AecArchBase70|Product Desc: Autodesk Architectural Desktop 2007 |Company: Autodesk,Inc. |WEB Address: www.autodesk.com
 90
      129
 91
        1
280
     0
281
     0
  0
CLASS
  1
AEC_DISP_REP_RAILING_PLAN
  2
AecDbDispRepRailingPlan
  3
AecArchBase70|Product Desc: Autodesk Architectural Desktop 2007 |Company: Autodesk,Inc. |WEB Address: www.autodesk.com
 90
      129
 91
        1
280
     0
281
     0
  0
CLASS
  1
AEC_DISP_PROPS_RAILING_PLAN
  2
AecDbDispPropsRailingPlan
  3
AecArchBase70|Product Desc: Autodesk Architectural Desktop 2007 |Company: Autodesk,Inc. |WEB Address: www.autodesk.com
 90
      129
 91
        1
280
     0
281
     0
  0
CLASS
  1
AEC_DISP_REP_ROOF_MODEL
  2
AecDbDispRepRoofModel
  3
AecArchBase70|Product Desc: Autodesk Architectural Desktop 2007 |Company: Autodesk,Inc. |WEB Address: www.autodesk.com
 90
      129
 91
        1
280
     0
281
     0
  0
CLASS
  1
AEC_DISP_REP_ROOF_RCP
  2
AecDbDispRepRoofRcp
  3
AecArchBase70|Product Desc: Autodesk Architectural Desktop 2007 |Company: Autodesk,Inc. |WEB Address: www.autodesk.com
 90
      129
 91
        1
280
     0
281
     0
  0
CLASS
  1
AEC_DISP_REP_RAILING_PLAN_100
  2
AecDbDispRepRailingPlan100
  3
AecArchBase70|Product Desc: Autodesk Architectural Desktop 2007 |Company: Autodesk,Inc. |WEB Address: www.autodesk.com
 90
      129
 91
        1
280
     0
281
     0
  0
CLASS
  1
AEC_DISP_ROPS_RAILING_PLAN_100
  2
AecDbDispPropsRailingPlan100
  3
AecArchBase70|Product Desc: Autodesk Architectural Desktop 2007 |Company: Autodesk,Inc. |WEB Address: www.autodesk.com
 90
      129
 91
        1
280
     0
281
     0
  0
CLASS
  1
AEC_DISP_REP_RAILING_PLAN_50
  2
AecDbDispRepRailingPlan50
  3
AecArchBase70|Product Desc: Autodesk Architectural Desktop 2007 |Company: Autodesk,Inc. |WEB Address: www.autodesk.com
 90
      129
 91
        1
280
     0
281
     0
  0
CLASS
  1
AEC_DISP_ROPS_RAILING_PLAN_50
  2
AecDbDispPropsRailingPlan50
  3
AecArchBase70|Product Desc: Autodesk Architectural Desktop 2007 |Company: Autodesk,Inc. |WEB Address: www.autodesk.com
 90
      129
 91
        1
280
     0
281
     0
  0
CLASS
  1
AEC_DISP_REP_RAILING_MODEL
  2
AecDbDispRepRailingModel
  3
AecArchBase70|Product Desc: Autodesk Architectural Desktop 2007 |Company: Autodesk,Inc. |WEB Address: www.autodesk.com
 90
      129
 91
        1
280
     0
281
     0
  0
CLASS
  1
AEC_DISP_PROPS_RAILING_MODEL
  2
AecDbDispPropsRailingModel
  3
AecArchBase70|Product Desc: Autodesk Architectural Desktop 2007 |Company: Autodesk,Inc. |WEB Address: www.autodesk.com
 90
      129
 91
        1
280
     0
281
     0
  0
CLASS
  1
AEC_DISP_REP_STAIR_MODEL
  2
AecDbDispRepStairModel
  3
AecArchBase70|Product Desc: Autodesk Architectural Desktop 2007 |Company: Autodesk,Inc. |WEB Address: www.autodesk.com
 90
      129
 91
        1
280
     0
281
     0
  0
CLASS
  1
AEC_DISP_PROPS_STAIR_MODEL
  2
AecDbDispPropsStairModel
  3
AecArchBase70|Product Desc: Autodesk Architectural Desktop 2007 |Company: Autodesk,Inc. |WEB Address: www.autodesk.com
 90
      129
 91
        1
280
     0
281
     0
  0
CLASS
  1
AEC_DISP_REP_STAIR_PLAN
  2
AecDbDispRepStairPlan
  3
AecArchBase70|Product Desc: Autodesk Architectural Desktop 2007 |Company: Autodesk,Inc. |WEB Address: www.autodesk.com
 90
      129
 91
        1
280
     0
281
     0
  0
CLASS
  1
AEC_DISP_REP_SPACE_RCP
  2
AecDbDispRepSpaceRcp
  3
AecArchBase70|Product Desc: Autodesk Architectural Desktop 2007 |Company: Autodesk,Inc. |WEB Address: www.autodesk.com
 90
      129
 91
        1
280
     0
281
     0
  0
CLASS
  1
AEC_DISP_REP_SPACE_DECOMPOSED
  2
AecDbDispRepSpaceDecomposed
  3
AecArchBase70|Product Desc: Autodesk Architectural Desktop 2007 |Company: Autodesk,Inc. |WEB Address: www.autodesk.com
 90
      129
 91
        1
280
     0
281
     0
  0
CLASS
  1
AEC_DISP_PROPS_SPACE_DECOMPOSED
  2
AecDbDispPropsSpaceDecomposed
  3
AecArchBase70|Product Desc: Autodesk Architectural Desktop 2007 |Company: Autodesk,Inc. |WEB Address: www.autodesk.com
 90
      129
 91
        1
280
     0
281
     0
  0
CLASS
  1
AEC_DISP_REP_ROOFSLAB_MODEL
  2
AecDbDispRepRoofSlabModel
  3
AecArchBase70|Product Desc: Autodesk Architectural Desktop 2007 |Company: Autodesk,Inc. |WEB Address: www.autodesk.com
 90
      129
 91
        1
280
     0
281
     0
  0
CLASS
  1
AEC_DISP_PROPS_ROOFSLAB
  2
AecDbDispPropsRoofSlab
  3
AecArchBase70|Product Desc: Autodesk Architectural Desktop 2007 |Company: Autodesk,Inc. |WEB Address: www.autodesk.com
 90
      129
 91
        1
280
     0
281
     0
  0
CLASS
  1
AEC_DISP_REP_STAIR_PLAN_100
  2
AecDbDispRepStairPlan100
  3
AecArchBase70|Product Desc: Autodesk Architectural Desktop 2007 |Company: Autodesk,Inc. |WEB Address: www.autodesk.com
 90
      129
 91
        1
280
     0
281
     0
  0
CLASS
  1
AEC_DISP_ROPS_STAIR_PLAN_100
  2
AecDbDispPropsStairPlan100
  3
AecArchBase70|Product Desc: Autodesk Architectural Desktop 2007 |Company: Autodesk,Inc. |WEB Address: www.autodesk.com
 90
      129
 91
        1
280
     0
281
     0
  0
CLASS
  1
AEC_DISP_REP_SPACE_MODEL
  2
AecDbDispRepSpaceModel
  3
AecArchBase70|Product Desc: Autodesk Architectural Desktop 2007 |Company: Autodesk,Inc. |WEB Address: www.autodesk.com
 90
      129
 91
        1
280
     0
281
     0
  0
CLASS
  1
AEC_DISP_PROPS_SPACE_MODEL
  2
AecDbDispPropsSpaceModel
  3
AecArchBase70|Product Desc: Autodesk Architectural Desktop 2007 |Company: Autodesk,Inc. |WEB Address: www.autodesk.com
 90
      129
 91
        1
280
     0
281
     0
  0
CLASS
  1
AEC_DISP_REP_SPACE_VOLUME
  2
AecDbDispRepSpaceVolume
  3
AecArchBase70|Product Desc: Autodesk Architectural Desktop 2007 |Company: Autodesk,Inc. |WEB Address: www.autodesk.com
 90
      129
 91
        1
280
     0
281
     0
  0
CLASS
  1
AEC_DISP_REP_STAIR_PLAN_50
  2
AecDbDispRepStairPlan50
  3
AecArchBase70|Product Desc: Autodesk Architectural Desktop 2007 |Company: Autodesk,Inc. |WEB Address: www.autodesk.com
 90
      129
 91
        1
280
     0
281
     0
  0
CLASS
  1
AEC_DISP_ROPS_STAIR_PLAN_50
  2
AecDbDispPropsStairPlan50
  3
AecArchBase70|Product Desc: Autodesk Architectural Desktop 2007 |Company: Autodesk,Inc. |WEB Address: www.autodesk.com
 90
      129
 91
        1
280
     0
281
     0
  0
CLASS
  1
AEC_DISP_REP_SLAB_MODEL
  2
AecDbDispRepSlabModel
  3
AecArchBase70|Product Desc: Autodesk Architectural Desktop 2007 |Company: Autodesk,Inc. |WEB Address: www.autodesk.com
 90
      129
 91
        1
280
     0
281
     0
  0
CLASS
  1
AEC_DISP_PROPS_SLAB
  2
AecDbDispPropsSlab
  3
AecArchBase70|Product Desc: Autodesk Architectural Desktop 2007 |Company: Autodesk,Inc. |WEB Address: www.autodesk.com
 90
      129
 91
        1
280
     0
281
     0
  0
CLASS
  1
AECS_DISP_REP_MEMBER_MODEL_DETAIL
  2
AecsDbDispRepMemberModelDetail
  3
AecArchBase70|Product Desc: Autodesk Architectural Desktop 2007 |Company: Autodesk,Inc. |WEB Address: www.autodesk.com
 90
      129
 91
        1
280
     0
281
     0
  0
CLASS
  1
AECS_DISP_PROPS_MEMBER
  2
AecsDbDispPropsMember
  3
AecArchBase70|Product Desc: Autodesk Architectural Desktop 2007 |Company: Autodesk,Inc. |WEB Address: www.autodesk.com
 90
      129
 91
        2
280
     0
281
     0
  0
CLASS
  1
AECS_DISP_REP_MEMBER_LOGICAL
  2
AecsDbDispRepMemberLogical
  3
AecArchBase70|Product Desc: Autodesk Architectural Desktop 2007 |Company: Autodesk,Inc. |WEB Address: www.autodesk.com
 90
      129
 91
        1
280
     0
281
     0
  0
CLASS
  1
AECS_DISP_PROPS_MEMBER_LOGICAL
  2
AecsDbDispPropsMemberLogical
  3
AecArchBase70|Product Desc: Autodesk Architectural Desktop 2007 |Company: Autodesk,Inc. |WEB Address: www.autodesk.com
 90
      129
 91
        1
280
     0
281
     0
  0
CLASS
  1
AECS_DISP_REP_MEMBER_ELEVATION_DETAIL
  2
AecsDbDispRepMemberElevationDetail
  3
AecArchBase70|Product Desc: Autodesk Architectural Desktop 2007 |Company: Autodesk,Inc. |WEB Address: www.autodesk.com
 90
      129
 91
        1
280
     0
281
     0
  0
CLASS
  1
AECS_DISP_PROPS_MEMBER_PROJECTED
  2
AecsDbDispPropsMemberProjected
  3
AecArchBase70|Product Desc: Autodesk Architectural Desktop 2007 |Company: Autodesk,Inc. |WEB Address: www.autodesk.com
 90
      129
 91
        2
280
     0
281
     0
  0
CLASS
  1
AECS_DISP_REP_MEMBER_MODEL_DESIGN
  2
AecsDbDispRepMemberModelDesign
  3
AecArchBase70|Product Desc: Autodesk Architectural Desktop 2007 |Company: Autodesk,Inc. |WEB Address: www.autodesk.com
 90
      129
 91
        1
280
     0
281
     0
  0
CLASS
  1
AECS_DISP_REP_MEMBER_ELEVATION_DESIGN
  2
AecsDbDispRepMemberElevationDesign
  3
AecArchBase70|Product Desc: Autodesk Architectural Desktop 2007 |Company: Autodesk,Inc. |WEB Address: www.autodesk.com
 90
      129
 91
        1
280
     0
281
     0
  0
CLASS
  1
AECS_DISP_REP_MEMBER_PLAN_DESIGN
  2
AecsDbDispRepMemberPlanDesign
  3
AecArchBase70|Product Desc: Autodesk Architectural Desktop 2007 |Company: Autodesk,Inc. |WEB Address: www.autodesk.com
 90
      129
 91
        1
280
     0
281
     0
  0
CLASS
  1
AECS_DISP_PROPS_MEMBER_PLAN
  2
AecsDbDispPropsMemberPlan
  3
AecArchBase70|Product Desc: Autodesk Architectural Desktop 2007 |Company: Autodesk,Inc. |WEB Address: www.autodesk.com
 90
      129
 91
        2
280
     0
281
     0
  0
CLASS
  1
AECS_DISP_REP_MEMBER_PLAN_DETAIL
  2
AecsDbDispRepMemberPlanDetail
  3
AecArchBase70|Product Desc: Autodesk Architectural Desktop 2007 |Company: Autodesk,Inc. |WEB Address: www.autodesk.com
 90
      129
 91
        1
280
     0
281
     0
  0
CLASS
  1
AECS_DISP_REP_MEMBER_PLAN_SKETCH
  2
AecsDbDispRepMemberPlanSketch
  3
AecArchBase70|Product Desc: Autodesk Architectural Desktop 2007 |Company: Autodesk,Inc. |WEB Address: www.autodesk.com
 90
      129
 91
        1
280
     0
281
     0
  0
CLASS
  1
AECS_DISP_PROPS_MEMBER_PLAN_SKETCH
  2
AecsDbDispPropsMemberPlanSketch
  3
AecArchBase70|Product Desc: Autodesk Architectural Desktop 2007 |Company: Autodesk,Inc. |WEB Address: www.autodesk.com
 90
      129
 91
        1
280
     0
281
     0
  0
CLASS
  1
AEC_DISP_REP_SCHEDULE_TABLE
  2
AecDbDispRepScheduleTable
  3
AecSchedule70|Product Desc: Autodesk Architectural Desktop 2007 |Company: Autodesk,Inc. |WEB Address: www.autodesk.com
 90
      129
 91
        1
280
     0
281
     0
  0
CLASS
  1
AEC_DISP_PROPS_SCHEDULE_TABLE
  2
AecDbDispPropsScheduleTable
  3
AecSchedule70|Product Desc: Autodesk Architectural Desktop 2007 |Company: Autodesk,Inc. |WEB Address: www.autodesk.com
 90
      129
 91
        1
280
     0
281
     0
  0
CLASS
  1
AEC_DISP_REP_SET
  2
AecDbDispRepSet
  3
AecBase70|Product Desc: Autodesk Architectural Desktop 2007 |Company: Autodesk,Inc. |WEB Address: www.autodesk.com
 90
      129
 91
       10
280
     0
281
     0
  0
CLASS
  1
AEC_DISP_REP_CONFIG
  2
AecDbDispRepConfig
  3
AecBase70|Product Desc: Autodesk Architectural Desktop 2007 |Company: Autodesk,Inc. |WEB Address: www.autodesk.com
 90
      129
 91
        2
280
     0
281
     0
  0
CLASS
  1
AEC_CLEANUP_GROUP_DEF
  2
AecDbCleanupGroupDef
  3
AecArchBase70|Product Desc: Autodesk Architectural Desktop 2007 |Company: Autodesk,Inc. |WEB Address: www.autodesk.com
 90
      129
 91
        1
280
     0
281
     0
  0
CLASS
  1
AEC_LAYERKEY_STYLE
  2
AecDbLayerKeyStyle
  3
AecBase70|Product Desc: Autodesk Architectural Desktop 2007 |Company: Autodesk,Inc. |WEB Address: www.autodesk.com
 90
      129
 91
        1
280
     0
281
     0
  0
CLASS
  1
AEC_VARS_ARCHBASE
  2
AecDbVarsArchBase
  3
AecArchBase70|Product Desc: Autodesk Architectural Desktop 2007 |Company: Autodesk,Inc. |WEB Address: www.autodesk.com
 90
      129
 91
        1
280
     0
281
     0
  0
CLASS
  1
AEC_VARS_STRUCTUREBASE
  2
AecsDbVarsStructureBase
  3
AecArchBase70|Product Desc: Autodesk Architectural Desktop 2007 |Company: Autodesk,Inc. |WEB Address: www.autodesk.com
 90
      129
 91
        1
280
     0
281
     0
  0
CLASS
  1
AEC_VARS_MUNICH
  2
AecDbVarsMunich
  3
AecArchBase70|Product Desc: Autodesk Architectural Desktop 2007 |Company: Autodesk,Inc. |WEB Address: www.autodesk.com
 90
      129
 91
        1
280
     0
281
     0
  0
CLASS
  1
BINRECORD
  2
AcAecBinRecord
  3
AecBase70|Product Desc: Autodesk Architectural Desktop 2007 |Company: Autodesk,Inc. |WEB Address: www.autodesk.com
 90
      129
 91
        1
280
     0
281
     0
  0
CLASS
  1
IMAGE
  2
AcDbRasterImage
  3
ISM
 90
     2175
 91
        0
280
     0
281
     1
  0
CLASS
  1
IMAGEDEF_REACTOR
  2
AcDbRasterImageDefReactor
  3
ISM
 90
        1
 91
        0
280
     0
281
     0
  0
CLASS
  1
IMAGEDEF
  2
AcDbRasterImageDef
  3
ISM
 90
        0
 91
        0
280
     0
281
     0
  0
CLASS
  1
RAPIDRTRENDERSETTINGS
  2
AcDbRapidRTRenderSettings
  3
ObjectDBX Classes
 90
     1024
 91
        2
280
     0
281
     0
  0
CLASS
  1
MENTALRAYRENDERSETTINGS
  2
AcDbMentalRayRenderSettings
  3
SCENEOE
 90
     1024
 91
        1
280
     0
281
     0
  0
ENDSEC
  0
SECTION
  2
TABLES
  0
TABLE
  2
VPORT
  5
8
102
{ACAD_XDICTIONARY
360
B51
102
}
330
0
100
AcDbSymbolTable
 70
     1
  0
VPORT
  5
DAB
330
8
100
AcDbSymbolTableRecord
100
AcDbViewportTableRecord
  2
*Active
 70
     0
 10
0.0
 20
0.0
 11
1.0
 21
1.0
 12
104.7827533477085
 22
-90.64877486053388
 13
0.0
 23
0.0
 14
0.5
 24
0.5
 15
0.5
 25
0.5
 16
0.0
 26
0.0
 36
1.0
 17
0.0
 27
0.0
 37
0.0
 40
33.75463742293764
 41
2.068714632174616
 42
50.0
 43
0.0
 44
0.0
 50
0.0
 51
0.0
 71
     0
 72
  1000
 73
     1
 74
     3
 75
     0
 76
     1
 77
     0
 78
     1
281
     0
 65
     1
110
0.0
120
0.0
130
0.0
111
1.0
121
0.0
131
0.0
112
0.0
122
1.0
132
0.0
 79
     0
146
0.0
348
9F
 60
     2
 61
     5
292
     1
282
     1
141
0.0
142
0.0
 63
   250
421
  3355443
1001
ACAD_NAV_VCDISPLAY
1070
     3
  0
ENDTAB
  0
TABLE
  2
LTYPE
  5
5
330
0
100
AcDbSymbolTable
 70
     2
  0
LTYPE
  5
14
330
5
100
AcDbSymbolTableRecord
100
AcDbLinetypeTableRecord
  2
ByBlock
 70
     0
  3

 72
    65
 73
     0
 40
0.0
  0
LTYPE
  5
15
330
5
100
AcDbSymbolTableRecord
100
AcDbLinetypeTableRecord
  2
ByLayer
 70
     0
  3

 72
    65
 73
     0
 40
0.0
  0
LTYPE
  5
16
330
5
100
AcDbSymbolTableRecord
100
AcDbLinetypeTableRecord
  2
Continuous
 70
     0
  3
Solid line
 72
    65
 73
     0
 40
0.0
  0
LTYPE
  5
A610A
330
5
100
AcDbSymbolTableRecord
100
AcDbLinetypeTableRecord
  2
DASHED
 70
     0
  3
Dashed __ __ __ __ __ __ __ __ __ __ __ __ __ _
 72
    65
 73
     2
 40
0.75
 49
0.5
 74
     0
 49
-0.25
 74
     0
  0
ENDTAB
  0
TABLE
  2
LAYER
  5
2
102
{ACAD_XDICTIONARY
360
E7
102
}
330
0
100
AcDbSymbolTable
 70
    42
  0
LAYER
  5
10
102
{ACAD_XDICTIONARY
360
A6C
102
}
330
2
100
AcDbSymbolTableRecord
100
AcDbLayerTableRecord
  2
0
 70
     0
 62
     7
  6
Continuous
370
    -3
390
F
347
98
348
0
  0
LAYER
  5
9D0
330
2
100
AcDbSymbolTableRecord
100
AcDbLayerTableRecord
  2
Defpoints
 70
     0
 62
     7
  6
Continuous
290
     0
370
    -3
390
F
347
98
348
0
  0
LAYER
  5
9583E
330
2
100
AcDbSymbolTableRecord
100
AcDbLayerTableRecord
  2
HI Fitting
 70
     0
 62
     3
  6
Continuous
370
    -3
390
F
347
98
348
0
1001
AcAecLayerStandard
1000

1000

1001
AcCmTransparency
1071
        0
  0
LAYER
  5
9583F
330
2
100
AcDbSymbolTableRecord
100
AcDbLayerTableRecord
  2
HI Lateral
 70
     0
 62
     2
  6
Continuous
370
    -3
390
F
347
98
348
0
1001
AcAecLayerStandard
1000

1000

1001
AcCmTransparency
1071
        0
  0
LAYER
  5
9588B
330
2
100
AcDbSymbolTableRecord
100
AcDbLayerTableRecord
  2
HI Text
 70
     0
 62
     2
  6
Continuous
370
    -3
390
F
347
98
348
0
1001
AcAecLayerStandard
1000

1000

1001
AcCmTransparency
1071
        0
  0
LAYER
  5
9C87A
330
2
100
AcDbSymbolTableRecord
100
AcDbLayerTableRecord
  2
HI HATCH FILL
 70
     0
 62
     9
  6
Continuous
370
    -3
390
F
347
98
348
0
1001
AcAecLayerStandard
1000

1000

1001
AcCmTransparency
1071
        0
  0
LAYER
  5
9CBA3
330
2
100
AcDbSymbolTableRecord
100
AcDbLayerTableRecord
  2
HI Product Outline
 70
     0
 62
     5
  6
Continuous
370
    -3
390
F
347
98
348
0
1001
AcAecLayerStandard
1000

1000

1001
AcCmTransparency
1071
        0
  0
LAYER
  5
9CBA6
330
2
100
AcDbSymbolTableRecord
100
AcDbLayerTableRecord
  2
HI Lateral Detail
 70
     0
 62
   249
  6
Continuous
370
    -3
390
F
347
98
348
0
1001
AcAecLayerStandard
1000

1000

1001
AcCmTransparency
1071
        0
  0
LAYER
  5
9CBA7
330
2
100
AcDbSymbolTableRecord
100
AcDbLayerTableRecord
  2
HI Deatil 1
 70
     0
 62
     2
  6
Continuous
370
    -3
390
F
347
98
348
0
1001
AcAecLayerStandard
1000

1000

1001
AcCmTransparency
1071
        0
  0
LAYER
  5
9CBA8
330
2
100
AcDbSymbolTableRecord
100
AcDbLayerTableRecord
  2
HI Deatil 2
 70
     0
 62
     1
  6
Continuous
370
    -3
390
F
347
98
348
0
1001
AcAecLayerStandard
1000

1000

1001
AcCmTransparency
1071
        0
  0
LAYER
  5
9CBA9
330
2
100
AcDbSymbolTableRecord
100
AcDbLayerTableRecord
  2
HI Detail 3
 70
     0
 62
   249
  6
Continuous
370
    -3
390
F
347
98
348
0
1001
AcAecLayerStandard
1000

1000

1001
AcCmTransparency
1071
        0
  0
LAYER
  5
9CBAB
330
2
100
AcDbSymbolTableRecord
100
AcDbLayerTableRecord
  2
HI Dimensions
 70
     0
 62
     1
  6
Continuous
370
    -3
390
F
347
98
348
0
1001
AcAecLayerStandard
1000

1000

1001
AcCmTransparency
1071
        0
  0
LAYER
  5
9EC2B
102
{ACAD_XDICTIONARY
360
9EC2C
102
}
330
2
100
AcDbSymbolTableRecord
100
AcDbLayerTableRecord
  2
L-dtl-htch
 70
     0
 62
   212
  6
Continuous
370
     0
390
F
347
98
348
0
1001
AcAecLayerStandard
1000

1000

  0
LAYER
  5
A0E56
330
2
100
AcDbSymbolTableRecord
100
AcDbLayerTableRecord
  2
HI Building Wall
 70
     0
 62
     6
  6
Continuous
370
    25
390
F
347
98
348
0
1001
AcAecLayerStandard
1000

1000

1001
AcCmTransparency
1071
        0
  0
LAYER
  5
A1F94
330
2
100
AcDbSymbolTableRecord
100
AcDbLayerTableRecord
  2
HI Text2
 70
     0
 62
     1
  6
Continuous
370
    -3
390
F
347
98
348
0
1001
AcAecLayerStandard
1000

1000

1001
AcCmTransparency
1071
        0
  0
LAYER
  5
A21B7
330
2
100
AcDbSymbolTableRecord
100
AcDbLayerTableRecord
  2
HI No Print
 70
     0
 62
     7
  6
Continuous
290
     0
370
    -3
390
F
347
98
348
0
1001
AcAecLayerStandard
1000

1000

1001
AcCmTransparency
1071
        0
  0
LAYER
  5
A610B
330
2
100
AcDbSymbolTableRecord
100
AcDbLayerTableRecord
  2
D-OBJECT
 70
     0
 62
     2
  6
Continuous
370
    -3
390
F
347
98
348
0
1001
AcAecLayerStandard
1000

1000

1001
AcCmTransparency
1071
        0
  0
LAYER
  5
A610C
330
2
100
AcDbSymbolTableRecord
100
AcDbLayerTableRecord
  2
D-OBJECT LIGHT
 70
     0
 62
     4
  6
Continuous
370
    -3
390
F
347
98
348
0
1001
AcAecLayerStandard
1000

1000

1001
AcCmTransparency
1071
        0
  0
LAYER
  5
A610D
330
2
100
AcDbSymbolTableRecord
100
AcDbLayerTableRecord
  2
D-OBJECT HEAVY
 70
     0
 62
     3
  6
Continuous
370
    -3
390
F
347
98
348
0
1001
AcAecLayerStandard
1000

1000

1001
AcCmTransparency
1071
        0
  0
LAYER
  5
A610E
330
2
100
AcDbSymbolTableRecord
100
AcDbLayerTableRecord
  2
D-TEXT
 70
     0
 62
     2
  6
Continuous
370
    -3
390
F
347
98
348
0
1001
AcAecLayerStandard
1000

1000

1001
AcCmTransparency
1071
        0
  0
LAYER
  5
A610F
330
2
100
AcDbSymbolTableRecord
100
AcDbLayerTableRecord
  2
D-LEADER
 70
     0
 62
     2
  6
Continuous
370
    -3
390
F
347
98
348
0
1001
AcAecLayerStandard
1000

1000

1001
AcCmTransparency
1071
        0
  0
LAYER
  5
A6110
330
2
100
AcDbSymbolTableRecord
100
AcDbLayerTableRecord
  2
D-HATCH
 70
     0
 62
     1
  6
Continuous
370
    -3
390
F
347
98
348
0
1001
AcAecLayerStandard
1000

1000

1001
AcCmTransparency
1071
        0
  0
LAYER
  5
A6111
330
2
100
AcDbSymbolTableRecord
100
AcDbLayerTableRecord
  2
D-DASHED LIGHT
 70
     0
 62
     4
  6
DASHED
370
    -3
390
F
347
98
348
0
1001
AcAecLayerStandard
1000

1000

1001
AcCmTransparency
1071
        0
  0
LAYER
  5
A6112
330
2
100
AcDbSymbolTableRecord
100
AcDbLayerTableRecord
  2
D-HATCH SCREENED
 70
     0
 62
     8
  6
Continuous
370
    -3
390
F
347
98
348
0
1001
AcAecLayerStandard
1000

1000

1001
AcCmTransparency
1071
        0
  0
LAYER
  5
AB757
330
2
100
AcDbSymbolTableRecord
100
AcDbLayerTableRecord
  2
D-PLANTS
 70
     0
 62
     4
  6
Continuous
370
    -3
390
F
347
98
348
0
1001
AcAecLayerStandard
1000

1000

1001
AcCmTransparency
1071
        0
  0
LAYER
  5
ABF9B
330
2
100
AcDbSymbolTableRecord
100
AcDbLayerTableRecord
  2
D-OBJECT SCREENED
 70
     0
 62
   253
  6
Continuous
370
    -3
390
F
347
98
348
0
1001
AcCmTransparency
1071
        0
1001
AcAecLayerStandard
1000

1000

  0
LAYER
  5
AE1AE
102
{ACAD_XDICTIONARY
360
AE1AF
102
}
330
2
100
AcDbSymbolTableRecord
100
AcDbLayerTableRecord
  2
LK-IRRG-025M
 70
     0
 62
     4
  6
Continuous
370
    -3
390
F
347
98
348
0
  0
LAYER
  5
AE753
102
{ACAD_XDICTIONARY
360
AE754
102
}
330
2
100
AcDbSymbolTableRecord
100
AcDbLayerTableRecord
  2
C-Details
 70
     0
 62
     1
  6
Continuous
370
    -3
390
F
347
98
348
0
  0
LAYER
  5
AE755
102
{ACAD_XDICTIONARY
360
AE756
102
}
330
2
100
AcDbSymbolTableRecord
100
AcDbLayerTableRecord
  2
0hunter-product thick
 70
     0
 62
     3
  6
Continuous
370
    40
390
F
347
98
348
0
  0
LAYER
  5
AE757
102
{ACAD_XDICTIONARY
360
AE758
102
}
330
2
100
AcDbSymbolTableRecord
100
AcDbLayerTableRecord
  2
0hunter-product thin
 70
     0
 62
     4
  6
Continuous
370
     0
390
F
347
98
348
0
  0
LAYER
  5
AE759
330
2
100
AcDbSymbolTableRecord
100
AcDbLayerTableRecord
  2
0hunter-gravel
 70
     0
 62
     8
  6
Continuous
370
    30
390
F
347
98
348
0
  0
LAYER
  5
AE7A8
330
2
100
AcDbSymbolTableRecord
100
AcDbLayerTableRecord
  2
Hunter Product Heavy
 70
     0
 62
     1
  6
Continuous
370
    50
390
F
347
98
348
0
1001
AcAecLayerStandard
1000

1000

  0
LAYER
  5
AE7A9
330
2
100
AcDbSymbolTableRecord
100
AcDbLayerTableRecord
  2
Hunter Product Medium
 70
     0
 62
     2
  6
Continuous
370
    -3
390
F
347
98
348
0
1001
AcAecLayerStandard
1000

1000

  0
LAYER
  5
AE7AA
330
2
100
AcDbSymbolTableRecord
100
AcDbLayerTableRecord
  2
Hunter Product Light
 70
     0
 62
   254
  6
Continuous
370
    -3
390
F
347
98
348
0
1001
AcAecLayerStandard
1000

1000

  0
LAYER
  5
AE7AB
330
2
100
AcDbSymbolTableRecord
100
AcDbLayerTableRecord
  2
Hunter Finished Grade
 70
     0
 62
     3
  6
Continuous
370
    50
390
F
347
98
348
0
1001
AcAecLayerStandard
1000

1000

  0
LAYER
  5
AE7AC
330
2
100
AcDbSymbolTableRecord
100
AcDbLayerTableRecord
  2
Hunter Hidden
 70
     0
 62
     6
  6
Continuous
290
     0
370
    -3
390
F
347
98
348
0
1001
AcAecLayerStandard
1000

1000

  0
LAYER
  5
AE7AD
330
2
100
AcDbSymbolTableRecord
100
AcDbLayerTableRecord
  2
Hunter Hatch Patterns
 70
     0
 62
   254
  6
Continuous
370
    -3
390
F
347
98
348
0
1001
AcAecLayerStandard
1000

1000

  0
LAYER
  5
AE7AE
330
2
100
AcDbSymbolTableRecord
100
AcDbLayerTableRecord
  2
Hunter Leaders
 70
     0
 62
     3
  6
Continuous
370
    -3
390
F
347
98
348
0
1001
AcAecLayerStandard
1000

1000

  0
LAYER
  5
AE7AF
330
2
100
AcDbSymbolTableRecord
100
AcDbLayerTableRecord
  2
Hunter Legend
 70
     0
 62
     4
  6
Continuous
370
    -3
390
F
347
98
348
0
1001
AcAecLayerStandard
1000

1000

  0
LAYER
  5
AE7B0
330
2
100
AcDbSymbolTableRecord
100
AcDbLayerTableRecord
  2
Hunter Detail Title
 70
     0
 62
     5
  6
Continuous
370
    -3
390
F
347
98
348
0
1001
AcAecLayerStandard
1000

1000

  0
LAYER
  5
AE7B1
330
2
100
AcDbSymbolTableRecord
100
AcDbLayerTableRecord
  2
Hunter Detail Number
 70
     0
 62
     3
  6
Continuous
370
    -3
390
F
347
98
348
0
1001
AcAecLayerStandard
1000

1000

  0
LAYER
  5
AF33D
102
{ACAD_XDICTIONARY
360
AF33E
102
}
330
2
100
AcDbSymbolTableRecord
100
AcDbLayerTableRecord
  2
1Bhunter-leader text
 70
     0
 62
    40
  6
Continuous
370
    25
390
F
347
98
348
0
  0
ENDTAB
  0
TABLE
  2
STYLE
  5
3
330
0
100
AcDbSymbolTable
 70
     5
  0
STYLE
  5
11
330
3
100
AcDbSymbolTableRecord
100
AcDbTextStyleTableRecord
  2
Standard
 70
     0
 40
0.0
 41
1.0
 50
0.0
 71
     0
 42
12.10402048440558
  3
arial.ttf
  4

1001
ACAD
1000
Arial
1071
       34
  0
STYLE
  5
1BACD
330
3
100
AcDbSymbolTableRecord
100
AcDbTextStyleTableRecord
  2
DIMS
 70
     0
 40
0.0
 41
1.0
 50
0.0
 71
     0
 42
0.2
  3
arial.ttf
  4

1001
ACAD
1000
Arial
1071
       34
  0
STYLE
  5
5DCD6
330
3
100
AcDbSymbolTableRecord
100
AcDbTextStyleTableRecord
  2
Hunter
 70
     0
 40
0.0
 41
0.7
 50
0.0
 71
     0
 42
0.09375
  3
romans.shx
  4

  0
STYLE
  5
78DB5
330
3
100
AcDbSymbolTableRecord
100
AcDbTextStyleTableRecord
  2
STYLE1
 70
     0
 40
0.0
 41
1.0
 50
0.0
 71
     0
 42
0.2
  3
txt
  4

  0
STYLE
  5
A6113
330
3
100
AcDbSymbolTableRecord
100
AcDbTextStyleTableRecord
  2
romand
 70
     0
 40
0.25
 41
1.0
 50
0.0
 71
     0
 42
0.25
  3
romand.shx
  4

  0
ENDTAB
  0
TABLE
  2
VIEW
  5
6
330
0
100
AcDbSymbolTable
 70
     0
  0
ENDTAB
  0
TABLE
  2
UCS
  5
7
330
0
100
AcDbSymbolTable
 70
     0
  0
ENDTAB
  0
TABLE
  2
APPID
  5
9
330
0
100
AcDbSymbolTable
 70
    18
  0
APPID
  5
12
330
9
100
AcDbSymbolTableRecord
100
AcDbRegAppTableRecord
  2
ACAD
 70
     0
  0
APPID
  5
BE
330
9
100
AcDbSymbolTableRecord
100
AcDbRegAppTableRecord
  2
ACAD_PSEXT
 70
     0
  0
APPID
  5
DBF
330
9
100
AcDbSymbolTableRecord
100
AcDbRegAppTableRecord
  2
AcAecLayerStandard
 70
     0
  0
APPID
  5
FEF2
330
9
100
AcDbSymbolTableRecord
100
AcDbRegAppTableRecord
  2
ACAD_DSTYLE_DIMJOGGED_JOGANGLE_SYMBOL
 70
     0
  0
APPID
  5
1BACF
330
9
100
AcDbSymbolTableRecord
100
AcDbRegAppTableRecord
  2
ACAD_DSTYLE_DIMJAG
 70
     0
  0
APPID
  5
1BAD0
330
9
100
AcDbSymbolTableRecord
100
AcDbRegAppTableRecord
  2
ACAD_DSTYLE_DIMTALN
 70
     0
  0
APPID
  5
5B55B
330
9
100
AcDbSymbolTableRecord
100
AcDbRegAppTableRecord
  2
ACAD_NAV_VCDISPLAY
 70
     0
  0
APPID
  5
5C537
330
9
100
AcDbSymbolTableRecord
100
AcDbRegAppTableRecord
  2
AEC_OBJVER_INFO
 70
     0
  0
APPID
  5
95767
330
9
100
AcDbSymbolTableRecord
100
AcDbRegAppTableRecord
  2
AcCmTransparency
 70
     0
  0
APPID
  5
9C807
330
9
100
AcDbSymbolTableRecord
100
AcDbRegAppTableRecord
  2
AEC_XDATA_BOUND_SPACE
 70
     0
  0
APPID
  5
9C925
330
9
100
AcDbSymbolTableRecord
100
AcDbRegAppTableRecord
  2
GradientColor1ACI
 70
     0
  0
APPID
  5
9C926
330
9
100
AcDbSymbolTableRecord
100
AcDbRegAppTableRecord
  2
GradientColor2ACI
 70
     0
  0
APPID
  5
A0A0A
330
9
100
AcDbSymbolTableRecord
100
AcDbRegAppTableRecord
  2
ACAD_MLEADERVER
 70
     0
  0
APPID
  5
A0A2C
330
9
100
AcDbSymbolTableRecord
100
AcDbRegAppTableRecord
  2
ManulPointsAssociative
 70
     0
  0
APPID
  5
A0A2D
330
9
100
AcDbSymbolTableRecord
100
AcDbRegAppTableRecord
  2
LandFX
 70
     0
  0
APPID
  5
A0DDB
330
9
100
AcDbSymbolTableRecord
100
AcDbRegAppTableRecord
  2
ACAD_EXEMPT_FROM_CAD_STANDARDS
 70
     0
  0
APPID
  5
A3AA6
330
9
100
AcDbSymbolTableRecord
100
AcDbRegAppTableRecord
  2
ACAD_DSTYLE_DIMRADIAL_EXTENSION
 70
     0
  0
APPID
  5
AE1B0
330
9
100
AcDbSymbolTableRecord
100
AcDbRegAppTableRecord
  2
LANDTECH
 70
     0
  0
ENDTAB
  0
TABLE
  2
DIMSTYLE
  5
A
330
0
100
AcDbSymbolTable
 70
     9
100
AcDbDimStyleTable
 71
     3
340
9EC41
340
1BACE
340
27
  0
DIMSTYLE
105
27
330
A
100
AcDbSymbolTableRecord
100
AcDbDimStyleTableRecord
  2
Standard
 70
     0
340
11
  0
DIMSTYLE
105
1BACE
330
A
100
AcDbSymbolTableRecord
100
AcDbDimStyleTableRecord
  2
LandMatters
 70
     0
 41
0.125
 49
0.18
 73
     0
 74
     0
140
0.125
141
0.0750000000000001
147
0.095
174
     1
176
     2
177
     2
178
     2
271
     3
272
     3
277
     4
279
     1
289
     1
340
1BACD
342
1BAAE
1001
ACAD_DSTYLE_DIMJOGGED_JOGANGLE_SYMBOL
1070
   384
1040
0.7853981633974483
1001
ACAD_DSTYLE_DIMJAG
1070
   388
1040
1.5
1001
ACAD_DSTYLE_DIMTALN
1070
   392
1070
     0
  0
DIMSTYLE
105
9EC41
330
A
100
AcDbSymbolTableRecord
100
AcDbDimStyleTableRecord
  2
HUNTER-1.5INCH
 70
     0
 41
1.0
 42
0.05
 43
0.505
 44
0.675
 46
0.675
 73
     0
 74
     0
 78
     3
140
1.0
144
0.9999999999999998
147
0.04
172
     1
176
   256
177
   256
178
   256
271
     0
272
     0
277
     4
279
     2
289
     1
340
5DCD6
341
9EC11
342
1BAAE
371
    -1
  0
DIMSTYLE
105
AE7B2
330
A
100
AcDbSymbolTableRecord
100
AcDbDimStyleTableRecord
  2
HUNTER-3INCH
 70
     0
 41
0.375
 42
0.05
 43
0.505
 44
0.3
 46
0.3
 73
     0
 74
     0
 78
     3
140
0.5
147
0.04
172
     1
176
   256
177
   256
178
   256
271
     2
272
     2
277
     4
279
     2
289
     1
340
5DCD6
341
9EC11
342
1BAAE
371
    -1
  0
DIMSTYLE
105
AE7B3
330
A
100
AcDbSymbolTableRecord
100
AcDbDimStyleTableRecord
  2
LandFX-QLEADER-SDIM1
 70
     0
 41
0.3
140
0.2
340
11
  0
DIMSTYLE
105
AE7B4
330
A
100
AcDbSymbolTableRecord
100
AcDbDimStyleTableRecord
  2
LandFX-QLEADER-SDIM10
 70
     0
 40
10.0
140
0.02
340
11
  0
DIMSTYLE
105
AE7B5
330
A
100
AcDbSymbolTableRecord
100
AcDbDimStyleTableRecord
  2
LandFX-QLEADER-SDIM5
 70
     0
 40
5.0
140
0.04
340
11
  0
DIMSTYLE
105
AE7B6
330
A
100
AcDbSymbolTableRecord
100
AcDbDimStyleTableRecord
  2
LandFX-QLEADER-SDIM2
 70
     0
 40
2.0
140
0.1
340
11
  0
DIMSTYLE
105
AE7B7
330
A
100
AcDbSymbolTableRecord
100
AcDbDimStyleTableRecord
  2
LandFX-QLEADER-SDIM3
 70
     0
 40
3.0
140
0.0666666666666667
340
11
  0
ENDTAB
  0
TABLE
  2
BLOCK_RECORD
  5
1
330
0
100
AcDbSymbolTable
 70
     8
  0
BLOCK_RECORD
  5
1F
102
{ACAD_XDICTIONARY
360
A62
102
}
330
1
100
AcDbSymbolTableRecord
100
AcDbBlockTableRecord
  2
*Model_Space
340
22
 70
     0
280
     1
281
     0
  0
BLOCK_RECORD
  5
A21B8
330
1
100
AcDbSymbolTableRecord
100
AcDbBlockTableRecord
  2
*Paper_Space
340
A21B9
 70
     0
280
     1
281
     0
  0
BLOCK_RECORD
  5
1BAAE
330
1
100
AcDbSymbolTableRecord
100
AcDbBlockTableRecord
  2
_ARCHTICK
340
0
 70
     0
280
     1
281
     0
  0
BLOCK_RECORD
  5
9EC11
330
1
100
AcDbSymbolTableRecord
100
AcDbBlockTableRecord
  2
_Open90
340
0
 70
     0
280
     1
281
     0
  0
BLOCK_RECORD
  5
A024C
330
1
100
AcDbSymbolTableRecord
100
AcDbBlockTableRecord
  2
_Integral
340
0
 70
     0
280
     1
281
     0
  0
BLOCK_RECORD
  5
A21A0
330
1
100
AcDbSymbolTableRecord
100
AcDbBlockTableRecord
  2
*Paper_Space3
340
A21A1
 70
     0
280
     1
281
     0
  0
BLOCK_RECORD
  5
A3B49
330
1
100
AcDbSymbolTableRecord
100
AcDbBlockTableRecord
  2
_FILLED
340
0
 70
     0
280
     1
281
     0
  0
BLOCK_RECORD
  5
AE1B1
330
1
100
AcDbSymbolTableRecord
100
AcDbBlockTableRecord
  2
LAFX-90EL-SLSL
340
0
 70
     0
280
     1
281
     0
  0
BLOCK_RECORD
  5
AE3D7
330
1
100
AcDbSymbolTableRecord
100
AcDbBlockTableRecord
  2
break
340
0
102
{BLKREFS
331
AE3DA
102
}
 70
     1
280
     1
281
     0
  0
BLOCK_RECORD
  5
AF37A
102
{ACAD_XDICTIONARY
360
AF387
102
}
330
1
100
AcDbSymbolTableRecord
100
AcDbBlockTableRecord
  2
A$C13452A40
340
0
 70
     1
280
     1
281
     0
  0
ENDTAB
  0
ENDSEC
  0
SECTION
  2
BLOCKS
  0
BLOCK
  5
20
330
1F
100
AcDbEntity
  8
0
100
AcDbBlockBegin
  2
*Model_Space
 70
     0
 10
0.0
 20
0.0
 30
0.0
  3
*Model_Space
  1

  0
ENDBLK
  5
21
330
1F
100
AcDbEntity
  8
0
100
AcDbBlockEnd
  0
BLOCK
  5
A21BA
330
A21B8
100
AcDbEntity
 67
     1
  8
0
100
AcDbBlockBegin
  2
*Paper_Space
 70
     0
 10
0.0
 20
0.0
 30
0.0
  3
*Paper_Space
  1

  0
ENDBLK
  5
A21BB
330
A21B8
100
AcDbEntity
 67
     1
  8
0
100
AcDbBlockEnd
  0
BLOCK
  5
1BAAF
330
1BAAE
100
AcDbEntity
  8
0
100
AcDbBlockBegin
  2
_ARCHTICK
 70
     0
 10
0.0
 20
0.0
 30
0.0
  3
_ARCHTICK
  1

  0
LWPOLYLINE
  5
1BAB0
330
1BAAE
100
AcDbEntity
  8
0
  6
ByBlock
 62
     0
100
AcDbPolyline
 90
        2
 70
     0
 43
0.15
 10
-0.5
 20
-0.5
 10
0.5
 20
0.5
  0
ENDBLK
  5
1BAB1
330
1BAAE
100
AcDbEntity
  8
0
100
AcDbBlockEnd
  0
BLOCK
  5
9EC12
330
9EC11
100
AcDbEntity
  8
0
100
AcDbBlockBegin
  2
_Open90
 70
     0
 10
0.0
 20
0.0
 30
0.0
  3
_Open90
  1

  0
LINE
  5
9EC13
330
9EC11
100
AcDbEntity
  8
L-dtl-htch
 62
     0
370
    -2
100
AcDbLine
 10
-0.5
 20
0.5
 30
0.0
 11
0.0
 21
0.0
 31
0.0
  0
LINE
  5
9EC14
330
9EC11
100
AcDbEntity
  8
L-dtl-htch
 62
     0
370
    -2
100
AcDbLine
 10
0.0
 20
0.0
 30
0.0
 11
-0.5
 21
-0.5
 31
0.0
  0
LINE
  5
9EC15
330
9EC11
100
AcDbEntity
  8
L-dtl-htch
 62
     0
370
    -2
100
AcDbLine
 10
0.0
 20
0.0
 30
0.0
 11
-1.0
 21
0.0
 31
0.0
  0
ENDBLK
  5
9EC16
330
9EC11
100
AcDbEntity
  8
0
100
AcDbBlockEnd
  0
BLOCK
  5
A024F
330
A024C
100
AcDbEntity
  8
0
100
AcDbBlockBegin
  2
_Integral
 70
     0
 10
0.0
 20
0.0
 30
0.0
  3
_Integral
  1

  0
ARC
  5
A024D
330
A024C
100
AcDbEntity
  8
0
  6
ByBlock
 62
     0
370
    -2
100
AcDbCircle
 10
0.44488802
 20
-0.09133463
 30
0.0
 40
0.4541666700000001
100
AcDbArc
 50
101.9999999980395
 51
167.9999999799193
  0
ARC
  5
A024E
330
A024C
100
AcDbEntity
  8
0
  6
ByBlock
 62
     0
370
    -2
100
AcDbCircle
 10
-0.44488802
 20
0.09133463
 30
0.0
 40
0.4541666700000001
100
AcDbArc
 50
282.0000000215427
 51
348.0000000034225
  0
ENDBLK
  5
A0250
330
A024C
100
AcDbEntity
  8
0
100
AcDbBlockEnd
  0
BLOCK
  5
A21A2
330
A21A0
100
AcDbEntity
 67
     1
  8
0
100
AcDbBlockBegin
  2
*Paper_Space3
 70
     0
 10
0.0
 20
0.0
 30
0.0
  3
*Paper_Space3
  1

  0
VIEWPORT
  5
A21AE
102
{ACAD_XDICTIONARY
360
A21AF
102
}
330
A21A0
100
AcDbEntity
 67
     1
  8
0
100
AcDbViewport
 10
5.923338180057497
 20
3.87567161218564
 30
0.0
 40
22.98473398222273
 41
11.11063537944881
 68
     0
 69
     0
 12
5.923338180057497
 22
3.87567161218564
 13
0.0
 23
0.0
 14
0.5
 24
0.5
 15
0.5
 25
0.5
 16
0.0
 26
0.0
 36
1.0
 17
0.0
 27
0.0
 37
0.0
 42
50.0
 43
0.0
 44
0.0
 45
11.11063537944881
 50
0.0
 51
0.0
 72
  1000
 90
   819232
  1

281
     0
 71
     1
 74
     0
110
0.0
120
0.0
130
0.0
111
1.0
121
0.0
131
0.0
112
0.0
122
1.0
132
0.0
 79
     0
146
0.0
170
     0
 61
     5
348
9F
292
     1
282
     1
141
0.0
142
0.0
 63
   250
421
  3355443
  0
VIEWPORT
  5
A21B2
102
{ACAD_XDICTIONARY
360
A21B3
102
}
330
A21A0
100
AcDbEntity
 67
     1
  8
HI No Print
100
AcDbViewport
 10
4.807258931670588
 20
4.0197692194672
 30
0.0
 40
9.521960265855952
 41
7.958251408262441
 68
     0
 69
     0
 12
209.1535067005205
 22
-34.73325279598967
 13
0.0
 23
0.0
 14
0.5
 24
0.5
 15
0.5
 25
0.5
 16
0.0
 26
0.0
 36
178.3294139684135
 17
-100.2903367760448
 27
-56.40334146147367
 37
0.0
 42
50.0
 43
0.0
 44
0.0
 45
34.68399775701541
 50
0.0
 51
0.0
 72
  1000
 90
   557664
  1

281
     0
 71
     1
 74
     0
110
0.0
120
0.0
130
0.0
111
1.0
121
0.0
131
0.0
112
0.0
122
1.0
132
0.0
 79
     0
146
0.0
170
     0
 61
     5
348
9F
292
     1
282
     1
141
0.0
142
0.0
 63
   250
421
  3355443
  0
ENDBLK
  5
A21A3
330
A21A0
100
AcDbEntity
 67
     1
  8
0
100
AcDbBlockEnd
  0
BLOCK
  5
A3B4A
330
A3B49
100
AcDbEntity
  8
0
100
AcDbBlockBegin
  2
_FILLED
 70
     0
 10
0.0
 20
0.0
 30
0.0
  3
_FILLED
  1

  0
SOLID
  5
A3B4B
330
A3B49
100
AcDbEntity
  8
0
  6
ByBlock
 62
     0
100
AcDbTrace
 10
0.0
 20
0.0
 30
0.0
 11
-1.0
 21
0.16875
 31
0.0
 12
-1.0
 22
-0.16875
 32
0.0
 13
-1.0
 23
-0.16875
 33
0.0
  0
ENDBLK
  5
A3B4C
330
A3B49
100
AcDbEntity
  8
0
  6
ByBlock
 62
     0
100
AcDbBlockEnd
  0
BLOCK
  5
AE1BA
330
AE1B1
100
AcDbEntity
  8
0
100
AcDbBlockBegin
  2
LAFX-90EL-SLSL
 70
     0
 10
0.0
 20
0.0
 30
0.0
  3
LAFX-90EL-SLSL
  1

  0
LINE
  5
AE1B2
330
AE1B1
100
AcDbEntity
  8
LK-IRRG-025M
100
AcDbLine
 10
0.6813050990954244
 20
0.0145731464300489
 30
0.0
 11
-0.8010426600610056
 21
0.0145731464300489
 31
0.0
  0
ARC
  5
AE1B3
330
AE1B1
100
AcDbEntity
  8
LK-IRRG-025M
100
AcDbCircle
 10
0.0433116563140779
 20
1.382761901014866
 30
0.0
 40
0.8506595227023041
100
AcDbArc
 50
92.94798381309098
 51
173.019636851632
  0
LINE
  5
AE1B4
330
AE1B1
100
AcDbEntity
  8
LK-IRRG-025M
100
AcDbLine
 10
-0.8010426600610056
 20
0.0145731464300489
 30
0.0
 11
-0.8010426600610056
 21
1.48614184095912
 31
0.0
  0
LINE
  5
AE1B5
330
AE1B1
100
AcDbEntity
  8
LK-IRRG-025M
100
AcDbLine
 10
1.406332670756085
 20
2.232295692044512
 30
0.0
 11
1.406332670756085
 21
0.741267751305383
 31
0.0
  0
LINE
  5
AE1B6
330
AE1B1
100
AcDbEntity
  8
LK-IRRG-025M
100
AcDbLine
 10
1.406332670756085
 20
0.741267751305383
 30
0.0
 11
0.6813050990954244
 21
0.741267751305383
 31
0.0
  0
LINE
  5
AE1B7
330
AE1B1
100
AcDbEntity
  8
LK-IRRG-025M
100
AcDbLine
 10
0.6813050990954244
 20
0.7416243756811128
 30
0.0
 11
0.6813050990954244
 21
0.0145731464300489
 31
0.0
  0
LINE
  5
AE1B8
330
AE1B1
100
AcDbEntity
  8
LK-IRRG-025M
100
AcDbLine
 10
0.6813050990954244
 20
0.741267751305383
 30
0.0
 11
0.6813050990954244
 21
0.7416243756811128
 31
0.0
  0
LINE
  5
AE1B9
330
AE1B1
100
AcDbEntity
  8
LK-IRRG-025M
100
AcDbLine
 10
-0.0004371889610599
 20
2.232295692044512
 30
0.0
 11
1.406332670756085
 21
2.232295692044512
 31
0.0
  0
ENDBLK
  5
AE1BB
330
AE1B1
100
AcDbEntity
  8
0
100
AcDbBlockEnd
  0
BLOCK
  5
AE3D8
330
AE3D7
100
AcDbEntity
  8
0
100
AcDbBlockBegin
  2
break
 70
     0
 10
0.0
 20
0.0
 30
0.0
  3
break
  1

  0
ENDBLK
  5
AE3D9
330
AE3D7
100
AcDbEntity
  8
0
100
AcDbBlockEnd
  0
BLOCK
  5
AF389
330
AF37A
100
AcDbEntity
  8
0
100
AcDbBlockBegin
  2
A$C13452A40
 70
     0
 10
0.0
 20
0.0
 30
0.0
  3
A$C13452A40
  1

  0
MTEXT
  5
AF37B
330
AF37A
100
AcDbEntity
  8
HI Text
100
AcDbMText
 10
0.082978347781534
 20
-0.4809991206672777
 30
0.0
 40
0.5
 41
0.5059889325313582
 46
0.0
 71
     6
 72
     1
  1
{\fArial|b0|i0|c0|p34;6}
  7
Hunter
 73
     1
 44
1.0
  0
CIRCLE
  5
AF37C
330
AF37A
100
AcDbEntity
  8
HI Text
100
AcDbCircle
 10
0.0
 20
-0.511352622321553
 30
0.0
 40
0.511352622321557
  0
LEADER
  5
AF37D
330
AF37A
100
AcDbEntity
  8
HI Text
100
AcDbLeader
  3
LandMatters
 76
     3
 10
-10.90990580606593
 20
-16.95625288555922
 30
0.0
 10
-1.133272524429273
 20
-0.5113526223215246
 30
0.0
 10
-0.511352622321553
 20
-0.511352622321553
 30
0.0
211
-0.0000000000000002
221
-1.0
231
0.0
1001
ACAD
1000
DSTYLE
1002
{
1070
    41
1040
0.5
1002
}
  0
MTEXT
  5
AF37E
330
AF37A
100
AcDbEntity
  8
HI Text
100
AcDbMText
 10
0.082978347781534
 20
-1.503704365310383
 30
0.0
 40
0.5
 41
0.5059889325313582
 46
0.0
 71
     6
 72
     1
  1
{\fArial|b0|i0|c0|p34;7}
  7
Hunter
 73
     1
 44
1.0
  0
CIRCLE
  5
AF37F
330
AF37A
100
AcDbEntity
  8
HI Text
100
AcDbCircle
 10
0.0
 20
-1.534057866964658
 30
0.0
 40
0.511352622321557
  0
LEADER
  5
AF380
330
AF37A
100
AcDbEntity
  8
HI Text
100
AcDbLeader
  3
LandMatters
 76
     3
 10
-4.598278988200348
 20
-12.12400289286309
 30
0.0
 10
-1.133272524429273
 20
-1.53405786696463
 30
0.0
 10
-0.511352622321553
 20
-1.534057866964658
 30
0.0
211
-0.0000000000000002
221
-1.0
231
0.0
1001
ACAD
1000
DSTYLE
1002
{
1070
    41
1040
0.5
1002
}
  0
CIRCLE
  5
AF381
330
AF37A
100
AcDbEntity
  8
HI Text
100
AcDbCircle
 10
2.761698817798901
 20
-6.002932084942273
 30
0.0
 40
0.511352622321557
  0
MTEXT
  5
AF382
330
AF37A
100
AcDbEntity
  8
HI Text
100
AcDbMText
 10
2.832394753881203
 20
-5.972578583287997
 30
0.0
 40
0.5
 41
0.2318212824010938
 46
0.0
 71
     6
 72
     1
  1
{\fArial|b0|i0|c0|p34;6}
  7
Hunter
 73
     1
 44
1.0
  0
MTEXT
  5
AF383
330
AF37A
100
AcDbEntity
  8
HI Text
100
AcDbMText
 10
3.382520726509966
 20
-5.971289379362275
 30
0.0
 40
0.5
 41
14.36766712141882
 46
0.0
 71
     4
 72
     1
  1
\A1;{\fArial|b0|i0|c0|p34;PVC LATERAL PIPE}
  7
Hunter
 73
     1
 44
1.0
  0
CIRCLE
  5
AF384
330
AF37A
100
AcDbEntity
  8
HI Text
100
AcDbCircle
 10
2.761698817798901
 20
-7.781198225841222
 30
0.0
 40
0.511352622321557
  0
MTEXT
  5
AF385
330
AF37A
100
AcDbEntity
  8
HI Text
100
AcDbMText
 10
2.832394753881203
 20
-7.750844724186947
 30
0.0
 40
0.5
 41
0.2318212824010938
 46
0.0
 71
     6
 72
     1
  1
{\fArial|b0|i0|c0|p34;7}
  7
Hunter
 73
     1
 44
1.0
  0
MTEXT
  5
AF386
330
AF37A
100
AcDbEntity
  8
HI Text
100
AcDbMText
 10
3.382520726509966
 20
-7.749555520261225
 30
0.0
 40
0.5
 41
14.36766712141882
 46
0.0
 71
     4
 72
     1
  1
\A1;{\fArial|b0|i0|c0|p34;BRICK}
  7
Hunter
 73
     1
 44
1.0
  0
ENDBLK
  5
AF38A
330
AF37A
100
AcDbEntity
  8
0
100
AcDbBlockEnd
  0
ENDSEC
  0
SECTION
  2
ENTITIES
  0
INSERT
  5
AE3DA
330
1F
100
AcDbEntity
  8
0
100
AcDbBlockReference
  2
break
 10
0.0
 20
0.0
 30
0.0
  0
LINE
  5
AE8E7
330
1F
100
AcDbEntity
  8
Hunter Product Medium
100
AcDbLine
 10
95.94008832096005
 20
-82.78106271071449
 30
0.0
 11
106.2013574366353
 21
-82.78106271071449
 31
0.0
  0
LINE
  5
AE8E8
330
1F
100
AcDbEntity
  8
Hunter Product Medium
100
AcDbLine
 10
107.6764897518541
 20
-94.16821926070184
 30
0.0
 11
106.9773940679024
 21
-93.63118504501725
 31
0.0
  0
LINE
  5
AE8E9
330
1F
100
AcDbEntity
  8
Hunter Product Medium
100
AcDbLine
 10
106.8613967201241
 20
-94.33406526807285
 30
0.0
 11
107.6764897518541
 21
-94.33406526807285
 31
0.0
  0
LINE
  5
AE8EA
330
1F
100
AcDbEntity
  8
Hunter Product Medium
100
AcDbLine
 10
107.0158045310081
 20
-94.16821926070184
 30
0.0
 11
107.6764897518541
 21
-94.16821926070184
 31
0.0
  0
LINE
  5
AE8EB
330
1F
100
AcDbEntity
  8
Hunter Product Medium
100
AcDbLine
 10
107.6764897518541
 20
-94.33406526807285
 30
0.0
 11
107.6764897518541
 21
-94.16821926070184
 31
0.0
  0
LINE
  5
AE8ED
330
1F
100
AcDbEntity
  8
Hunter Product Medium
100
AcDbLine
 10
106.8613967201241
 20
-94.33406526807285
 30
0.0
 11
106.732160688192
 21
-92.52715732073355
 31
0.0
  0
LINE
  5
AE8EF
330
1F
100
AcDbEntity
  8
Hunter Product Medium
100
AcDbLine
 10
107.0158045310081
 20
-94.16821926070184
 30
0.0
 11
106.8984303539846
 21
-92.52715732073355
 31
0.0
  0
LINE
  5
AE8F6
330
1F
100
AcDbEntity
  8
Hunter Product Medium
100
AcDbLine
 10
95.12567975291757
 20
-94.16823154199745
 30
0.0
 11
95.24304912948457
 21
-92.52715732073355
 31
0.0
  0
LINE
  5
AE8FE
330
1F
100
AcDbEntity
  8
Hunter Product Medium
100
AcDbLine
 10
94.46498792515336
 20
-94.3340792078451
 30
0.0
 11
94.46498792515336
 21
-94.16823154199747
 31
0.0
  0
LINE
  5
AE8FF
330
1F
100
AcDbEntity
  8
Hunter Product Medium
100
AcDbLine
 10
95.12567975291757
 20
-94.16823154199747
 30
0.0
 11
94.46498792515336
 21
-94.16823154199747
 31
0.0
  0
LINE
  5
AE900
330
1F
100
AcDbEntity
  8
Hunter Product Medium
100
AcDbLine
 10
95.11381777938941
 20
-94.3340792078451
 30
0.0
 11
94.46498792515336
 21
-94.3340792078451
 31
0.0
  0
LINE
  5
AE901
330
1F
100
AcDbEntity
  8
Hunter Product Medium
100
AcDbLine
 10
95.28008910789532
 20
-94.3340792078451
 30
0.0
 11
95.40932613684594
 21
-92.52715732073355
 31
0.0
  0
LINE
  5
AE902
330
1F
100
AcDbEntity
  8
Hunter Product Medium
100
AcDbLine
 10
94.46498792515336
 20
-94.3340792078451
 30
0.0
 11
94.46498792515336
 21
-94.16823154199745
 31
0.0
  0
LINE
  5
AE903
330
1F
100
AcDbEntity
  8
Hunter Product Medium
100
AcDbLine
 10
95.12567975291757
 20
-94.16823154199745
 30
0.0
 11
94.46498792515336
 21
-94.16823154199745
 31
0.0
  0
LINE
  5
AE904
330
1F
100
AcDbEntity
  8
Hunter Product Medium
100
AcDbLine
 10
95.28008910789532
 20
-94.3340792078451
 30
0.0
 11
94.46498792515336
 21
-94.3340792078451
 31
0.0
  0
LINE
  5
AE909
330
1F
100
AcDbEntity
  8
Hunter Product Medium
100
AcDbLine
 10
96.0945371992863
 20
-82.94690871808549
 30
0.0
 11
106.0469496257512
 21
-82.94690871808549
 31
0.0
  0
LINE
  5
AE90F
330
1F
100
AcDbEntity
  8
Hunter Product Medium
100
AcDbLine
 10
94.46497023121372
 20
-94.16821926070184
 30
0.0
 11
95.1640659151654
 21
-93.63118504501725
 31
0.0
  0
LINE
  5
AEB5F
330
1F
100
AcDbEntity
  8
HI Detail 3
100
AcDbLine
 10
109.8105914315613
 20
-82.21099548189958
 30
0.0
 11
109.7439000122596
 21
-82.78106271071449
 31
0.0
  0
ARC
  5
AEB60
330
1F
100
AcDbEntity
  8
HI Detail 3
100
AcDbCircle
 10
110.1965659501557
 20
-82.47499579027307
 30
0.0
 40
0.5493173568943436
100
AcDbArc
 50
148.6806400000003
 51
213.8607828153733
  0
ARC
  5
AEB61
330
1F
100
AcDbEntity
  8
HI Detail 3
100
AcDbCircle
 10
110.0944755705784
 20
-82.73200403097584
 30
0.0
 40
0.3446854965995054
100
AcDbArc
 50
112.0602259999992
 51
188.1826274701534
  0
ARC
  5
AEB62
330
1F
100
AcDbEntity
  8
HI Detail 3
100
AcDbCircle
 10
109.4830654685245
 20
-82.7317342548039
 30
0.0
 40
0.2494987334889411
100
AcDbArc
 50
348.5969077224557
 51
73.05072099999847
  0
ARC
  5
AEB63
330
1F
100
AcDbEntity
  8
HI Detail 3
100
AcDbCircle
 10
108.7137478546523
 20
-82.86759972660235
 30
0.0
 40
0.3155275572235842
100
AcDbArc
 50
102.1897460000014
 51
164.0819993156842
  0
ARC
  5
AEB64
330
1F
100
AcDbEntity
  8
HI Detail 3
100
AcDbCircle
 10
108.5788641912173
 20
-82.67754020215514
 30
0.0
 40
0.2075551725847646
100
AcDbArc
 50
106.561931999999
 51
209.9187256822932
  0
ARC
  5
AEB65
330
1F
100
AcDbEntity
  8
HI Detail 3
100
AcDbCircle
 10
108.7757654162886
 20
-82.49696706932962
 30
0.0
 40
0.4909882104619119
100
AcDbArc
 50
132.814685000002
 51
215.3535453747734
  0
ARC
  5
AEB66
330
1F
100
AcDbEntity
  8
HI Detail 3
100
AcDbCircle
 10
107.1349159772812
 20
-82.84450069469576
 30
0.0
 40
2.109388733911527
100
AcDbArc
 50
1.723379296511866
 51
20.40687000000047
  0
ARC
  5
AEB67
330
1F
100
AcDbEntity
  8
HI Detail 3
100
AcDbCircle
 10
110.5280456820084
 20
-82.90088833720188
 30
0.0
 40
1.306521578388193
100
AcDbArc
 50
153.5462989999988
 51
174.7378106064898
  0
ARC
  5
AEB68
330
1F
100
AcDbEntity
  8
HI Detail 3
100
AcDbCircle
 10
108.7820100712862
 20
-82.79415869197832
 30
0.0
 40
0.4089850992972934
100
AcDbArc
 50
1.834963522754397
 51
54.53119099999815
  0
ARC
  5
AEB69
330
1F
100
AcDbEntity
  8
HI Detail 3
100
AcDbCircle
 10
109.422281801183
 20
-82.82973818875959
 30
0.0
 40
0.2083158529385729
100
AcDbArc
 50
84.50482800000029
 51
166.4872405020932
  0
ARC
  5
AEB6A
330
1F
100
AcDbEntity
  8
HI Detail 3
100
AcDbCircle
 10
108.2212073255614
 20
-82.47326214667605
 30
0.0
 40
0.5493173568943436
100
AcDbArc
 50
325.9211759999997
 51
31.31935999999965
  0
ARC
  5
AEB6B
330
1F
100
AcDbEntity
  8
HI Detail 3
100
AcDbCircle
 10
108.9347078071927
 20
-82.73003599168831
 30
0.0
 40
0.2494987334889411
100
AcDbArc
 50
106.9492790000015
 51
191.8012229999999
  0
ARC
  5
AEB6C
330
1F
100
AcDbEntity
  8
HI Detail 3
100
AcDbCircle
 10
108.261474736151
 20
-82.63620253199791
 30
0.0
 40
0.6963630608697722
100
AcDbArc
 50
347.9934255806366
 51
30.39069500000018
  0
ARC
  5
AEB6D
330
1F
100
AcDbEntity
  8
HI Detail 3
100
AcDbCircle
 10
109.4504225517137
 20
-82.86539729162438
 30
0.0
 40
0.5050431067665801
100
AcDbArc
 50
132.4689880000008
 51
170.3874382513346
  0
ARC
  5
AEB6E
330
1F
100
AcDbEntity
  8
HI Detail 3
100
AcDbCircle
 10
109.1292650753599
 20
-82.6000967505532
 30
0.0
 40
0.4289220006633866
100
AcDbArc
 50
335.0448441586579
 51
35.95163900000102
  0
ARC
  5
AEB6F
330
1F
100
AcDbEntity
  8
HI Detail 3
100
AcDbCircle
 10
110.7451800842136
 20
-82.80701065190951
 30
0.0
 40
0.4089850992972934
100
AcDbArc
 50
125.4688090000009
 51
176.362442736129
  0
ARC
  5
AEB70
330
1F
100
AcDbEntity
  8
HI Detail 3
100
AcDbCircle
 10
109.0169143203609
 20
-82.91444790676452
 30
0.0
 40
1.306521578388193
100
AcDbArc
 50
5.85964087991072
 51
26.45370100000124
  0
ARC
  5
AEB71
330
1F
100
AcDbEntity
  8
HI Detail 3
100
AcDbCircle
 10
112.3739515113242
 20
-82.85791431977186
 30
0.0
 40
2.109388733911527
100
AcDbArc
 50
159.5931299999995
 51
177.912074010089
  0
ARC
  5
AEB72
330
1F
100
AcDbEntity
  8
HI Detail 3
100
AcDbCircle
 10
110.9941569555992
 20
-82.88156174914288
 30
0.0
 40
0.3155275572235842
100
AcDbArc
 50
102.1897460000014
 51
161.4270918580736
  0
ARC
  5
AEB73
330
1F
100
AcDbEntity
  8
HI Detail 3
100
AcDbCircle
 10
110.8592732921645
 20
-82.69150222469574
 30
0.0
 40
0.2075551725847646
100
AcDbArc
 50
106.561931999999
 51
205.5629229232413
  0
ARC
  5
AEB74
330
1F
100
AcDbEntity
  8
HI Detail 3
100
AcDbCircle
 10
111.0561745172356
 20
-82.51092909187013
 30
0.0
 40
0.4909882104619119
100
AcDbArc
 50
132.814685000002
 51
213.3796036895895
  0
ARC
  5
AEB75
330
1F
100
AcDbEntity
  8
HI Detail 3
100
AcDbCircle
 10
109.7602891961201
 20
-82.61405435053346
 30
0.0
 40
0.4289220006633866
100
AcDbArc
 50
337.084840269213
 51
35.95163900000102
  0
LINE
  5
AEB76
330
1F
100
AcDbEntity
  8
HI Detail 3
100
AcDbLine
 10
106.8788717064665
 20
-82.21099548189958
 30
0.0
 11
106.8121802871648
 21
-82.78106271071449
 31
0.0
  0
ARC
  5
AEB77
330
1F
100
AcDbEntity
  8
HI Detail 3
100
AcDbCircle
 10
107.2648462250609
 20
-82.47499579027307
 30
0.0
 40
0.5493173568943436
100
AcDbArc
 50
148.6806400000003
 51
213.8607828153733
  0
ARC
  5
AEB78
330
1F
100
AcDbEntity
  8
HI Detail 3
100
AcDbCircle
 10
107.1627558454836
 20
-82.73200403097584
 30
0.0
 40
0.3446854965995054
100
AcDbArc
 50
112.0602259999992
 51
188.1826274701534
  0
ARC
  5
AEB79
330
1F
100
AcDbEntity
  8
HI Detail 3
100
AcDbCircle
 10
106.5513457434297
 20
-82.7317342548039
 30
0.0
 40
0.2494987334889411
100
AcDbArc
 50
348.5969077224557
 51
73.05072099999847
  0
ARC
  5
AEB7D
330
1F
100
AcDbEntity
  8
HI Detail 3
100
AcDbCircle
 10
104.2031962521864
 20
-82.84450069469576
 30
0.0
 40
2.109388733911527
100
AcDbArc
 50
1.723379296511866
 51
20.40687000000047
  0
ARC
  5
AEB7E
330
1F
100
AcDbEntity
  8
HI Detail 3
100
AcDbCircle
 10
107.5963259569136
 20
-82.90088833720188
 30
0.0
 40
1.306521578388193
100
AcDbArc
 50
153.5462989999988
 51
174.7378106064898
  0
ARC
  5
AEB80
330
1F
100
AcDbEntity
  8
HI Detail 3
100
AcDbCircle
 10
106.4905620760882
 20
-82.82973818875959
 30
0.0
 40
0.2083158529385729
100
AcDbArc
 50
84.50482800000029
 51
166.4872405020932
  0
ARC
  5
AEB85
330
1F
100
AcDbEntity
  8
HI Detail 3
100
AcDbCircle
 10
106.1975453502651
 20
-82.6000967505532
 30
0.0
 40
0.4289220006633866
100
AcDbArc
 50
335.0448441586579
 51
35.95163900000019
  0
ARC
  5
AEB86
330
1F
100
AcDbEntity
  8
HI Detail 3
100
AcDbCircle
 10
107.8134603591188
 20
-82.80701065190951
 30
0.0
 40
0.4089850992972934
100
AcDbArc
 50
125.4688090000009
 51
176.362442736129
  0
ARC
  5
AEB87
330
1F
100
AcDbEntity
  8
HI Detail 3
100
AcDbCircle
 10
106.0851945952661
 20
-82.91444790676452
 30
0.0
 40
1.306521578388193
100
AcDbArc
 50
5.85964087991072
 51
26.45370100000124
  0
ARC
  5
AEB88
330
1F
100
AcDbEntity
  8
HI Detail 3
100
AcDbCircle
 10
109.4422317862294
 20
-82.85791431977186
 30
0.0
 40
2.109388733911527
100
AcDbArc
 50
159.5931299999995
 51
177.912074010089
  0
ARC
  5
AEB89
330
1F
100
AcDbEntity
  8
HI Detail 3
100
AcDbCircle
 10
108.0624372305044
 20
-82.88156174914288
 30
0.0
 40
0.3155275572235842
100
AcDbArc
 50
102.1897460000014
 51
161.4270918580736
  0
ARC
  5
AEB8A
330
1F
100
AcDbEntity
  8
HI Detail 3
100
AcDbCircle
 10
107.9275535670697
 20
-82.69150222469574
 30
0.0
 40
0.2075551725847646
100
AcDbArc
 50
106.561931999999
 51
205.5629229232413
  0
ARC
  5
AEB8B
330
1F
100
AcDbEntity
  8
HI Detail 3
100
AcDbCircle
 10
108.1244547921408
 20
-82.51092909187013
 30
0.0
 40
0.4909882104619119
100
AcDbArc
 50
132.814685000002
 51
213.3796036895895
  0
ARC
  5
AEB8C
330
1F
100
AcDbEntity
  8
HI Detail 3
100
AcDbCircle
 10
106.8285694710253
 20
-82.61405435053346
 30
0.0
 40
0.4289220006633866
100
AcDbArc
 50
337.084840269213
 51
35.95163900000019
  0
LINE
  5
AEB8D
330
1F
100
AcDbEntity
  8
HI Deatil 2
100
AcDbLine
 10
111.0657545535306
 20
-82.78106271071449
 30
0.0
 11
106.2013574366353
 21
-82.78106271071449
 31
0.0
  0
LINE
  5
AEB8E
330
1F
100
AcDbEntity
  8
HI Detail 3
100
AcDbLine
 10
92.33086855150657
 20
-82.21099548189958
 30
0.0
 11
92.39755997080822
 21
-82.78106271071449
 31
0.0
  0
ARC
  5
AEB8F
330
1F
100
AcDbEntity
  8
HI Detail 3
100
AcDbCircle
 10
91.94489403291211
 20
-82.47499579027307
 30
0.0
 40
0.5493173568943436
100
AcDbArc
 50
326.1392171846271
 51
31.31935999999996
  0
ARC
  5
AEB90
330
1F
100
AcDbEntity
  8
HI Detail 3
100
AcDbCircle
 10
92.04698441248947
 20
-82.73200403097584
 30
0.0
 40
0.3446854965995054
100
AcDbArc
 50
351.8173725298467
 51
67.9397740000008
  0
ARC
  5
AEB91
330
1F
100
AcDbEntity
  8
HI Detail 3
100
AcDbCircle
 10
92.65839451454338
 20
-82.7317342548039
 30
0.0
 40
0.2494987334889411
100
AcDbArc
 50
106.9492790000015
 51
191.4030922775441
  0
ARC
  5
AEB92
330
1F
100
AcDbEntity
  8
HI Detail 3
100
AcDbCircle
 10
93.4277121284156
 20
-82.86759972660235
 30
0.0
 40
0.3155275572235842
100
AcDbArc
 50
15.91800068431576
 51
77.81025399999854
  0
ARC
  5
AEB93
330
1F
100
AcDbEntity
  8
HI Detail 3
100
AcDbCircle
 10
93.56259579185055
 20
-82.67754020215514
 30
0.0
 40
0.2075551725847646
100
AcDbArc
 50
330.0812743177071
 51
73.43806800000095
  0
ARC
  5
AEB94
330
1F
100
AcDbEntity
  8
HI Detail 3
100
AcDbCircle
 10
93.36569456677922
 20
-82.49696706932962
 30
0.0
 40
0.4909882104619119
100
AcDbArc
 50
324.6464546252269
 51
47.18531499999797
  0
ARC
  5
AEB95
330
1F
100
AcDbEntity
  8
HI Detail 3
100
AcDbCircle
 10
95.00654400578664
 20
-82.84450069469576
 30
0.0
 40
2.109388733911527
100
AcDbArc
 50
159.5931299999995
 51
178.2766207034881
  0
ARC
  5
AEB96
330
1F
100
AcDbEntity
  8
HI Detail 3
100
AcDbCircle
 10
91.61341430105945
 20
-82.90088833720188
 30
0.0
 40
1.306521578388193
100
AcDbArc
 50
5.26218939351013
 51
26.45370100000151
  0
ARC
  5
AEB97
330
1F
100
AcDbEntity
  8
HI Detail 3
100
AcDbCircle
 10
93.35944991178168
 20
-82.79415869197832
 30
0.0
 40
0.4089850992972934
100
AcDbArc
 50
125.4688090000019
 51
178.1650364772456
  0
ARC
  5
AEB98
330
1F
100
AcDbEntity
  8
HI Detail 3
100
AcDbCircle
 10
92.7191781818848
 20
-82.82973818875959
 30
0.0
 40
0.2083158529385729
100
AcDbArc
 50
13.51275949790663
 51
95.49517199999971
  0
ARC
  5
AEB99
330
1F
100
AcDbEntity
  8
HI Detail 3
100
AcDbCircle
 10
93.92025265750648
 20
-82.47326214667605
 30
0.0
 40
0.5493173568943436
100
AcDbArc
 50
148.68064
 51
214.0788240000008
  0
ARC
  5
AEB9A
330
1F
100
AcDbEntity
  8
HI Detail 3
100
AcDbCircle
 10
93.20675217587513
 20
-82.73003599168831
 30
0.0
 40
0.2494987334889411
100
AcDbArc
 50
348.1987769999999
 51
73.05072099999847
  0
ARC
  5
AEB9B
330
1F
100
AcDbEntity
  8
HI Detail 3
100
AcDbCircle
 10
93.87998524691688
 20
-82.63620253199791
 30
0.0
 40
0.6963630608697722
100
AcDbArc
 50
149.6093049999995
 51
192.0065744193633
  0
ARC
  5
AEB9C
330
1F
100
AcDbEntity
  8
HI Detail 3
100
AcDbCircle
 10
92.69103743135413
 20
-82.86539729162438
 30
0.0
 40
0.5050431067665801
100
AcDbArc
 50
9.612561748665365
 51
47.5310119999986
  0
ARC
  5
AEB9D
330
1F
100
AcDbEntity
  8
HI Detail 3
100
AcDbCircle
 10
93.01219490770792
 20
-82.6000967505532
 30
0.0
 40
0.4289220006633866
100
AcDbArc
 50
144.0483609999989
 51
204.955155841342
  0
ARC
  5
AEB9E
330
1F
100
AcDbEntity
  8
HI Detail 3
100
AcDbCircle
 10
91.39627989885424
 20
-82.80701065190951
 30
0.0
 40
0.4089850992972934
100
AcDbArc
 50
3.637557263871038
 51
54.53119099999847
  0
ARC
  5
AEB9F
330
1F
100
AcDbEntity
  8
HI Detail 3
100
AcDbCircle
 10
93.12454566270698
 20
-82.91444790676452
 30
0.0
 40
1.306521578388193
100
AcDbArc
 50
153.5462989999984
 51
174.1403591200892
  0
ARC
  5
AEBA0
330
1F
100
AcDbEntity
  8
HI Detail 3
100
AcDbCircle
 10
89.76750847174363
 20
-82.85791431977186
 30
0.0
 40
2.109388733911527
100
AcDbArc
 50
2.087925989910981
 51
20.4068700000005
  0
ARC
  5
AEBA1
330
1F
100
AcDbEntity
  8
HI Detail 3
100
AcDbCircle
 10
91.14730302746865
 20
-82.88156174914288
 30
0.0
 40
0.3155275572235842
100
AcDbArc
 50
18.5729081419264
 51
77.81025399999854
  0
ARC
  5
AEBA2
330
1F
100
AcDbEntity
  8
HI Detail 3
100
AcDbCircle
 10
91.28218669090337
 20
-82.69150222469574
 30
0.0
 40
0.2075551725847646
100
AcDbArc
 50
334.4370770767586
 51
73.43806800000095
  0
ARC
  5
AEBA3
330
1F
100
AcDbEntity
  8
HI Detail 3
100
AcDbCircle
 10
91.08528546583222
 20
-82.51092909187013
 30
0.0
 40
0.4909882104619119
100
AcDbArc
 50
326.6203963104104
 51
47.18531499999797
  0
ARC
  5
AEBA4
330
1F
100
AcDbEntity
  8
HI Detail 3
100
AcDbCircle
 10
92.38117078694768
 20
-82.61405435053346
 30
0.0
 40
0.4289220006633866
100
AcDbArc
 50
144.0483609999989
 51
202.9151597307869
  0
LINE
  5
AEBA5
330
1F
100
AcDbEntity
  8
HI Detail 3
100
AcDbLine
 10
95.26258827660139
 20
-82.21099548189958
 30
0.0
 11
95.32927969590302
 21
-82.78106271071449
 31
0.0
  0
ARC
  5
AEBA6
330
1F
100
AcDbEntity
  8
HI Detail 3
100
AcDbCircle
 10
94.87661375800691
 20
-82.47499579027307
 30
0.0
 40
0.5493173568943436
100
AcDbArc
 50
326.1392171846271
 51
31.31935999999996
  0
ARC
  5
AEBA7
330
1F
100
AcDbEntity
  8
HI Detail 3
100
AcDbCircle
 10
94.97870413758427
 20
-82.73200403097584
 30
0.0
 40
0.3446854965995054
100
AcDbArc
 50
351.8173725298467
 51
67.9397740000008
  0
ARC
  5
AEBA8
330
1F
100
AcDbEntity
  8
HI Detail 3
100
AcDbCircle
 10
95.5901142396382
 20
-82.7317342548039
 30
0.0
 40
0.2494987334889411
100
AcDbArc
 50
106.9492790000015
 51
191.4030922775441
  0
ARC
  5
AEBAC
330
1F
100
AcDbEntity
  8
HI Detail 3
100
AcDbCircle
 10
97.93826373088144
 20
-82.84450069469576
 30
0.0
 40
2.109388733911527
100
AcDbArc
 50
159.5931299999995
 51
178.2766207034881
  0
ARC
  5
AEBAD
330
1F
100
AcDbEntity
  8
HI Detail 3
100
AcDbCircle
 10
94.54513402615425
 20
-82.90088833720188
 30
0.0
 40
1.306521578388193
100
AcDbArc
 50
5.26218939351013
 51
26.45370100000151
  0
ARC
  5
AEBAF
330
1F
100
AcDbEntity
  8
HI Detail 3
100
AcDbCircle
 10
95.6508979069796
 20
-82.82973818875959
 30
0.0
 40
0.2083158529385729
100
AcDbArc
 50
13.51275949790663
 51
95.49517199999971
  0
ARC
  5
AEBB4
330
1F
100
AcDbEntity
  8
HI Detail 3
100
AcDbCircle
 10
95.94391463280272
 20
-82.6000967505532
 30
0.0
 40
0.4289220006633866
100
AcDbArc
 50
144.0483609999994
 51
204.955155841342
  0
ARC
  5
AEBB5
330
1F
100
AcDbEntity
  8
HI Detail 3
100
AcDbCircle
 10
94.32799962394906
 20
-82.80701065190951
 30
0.0
 40
0.4089850992972934
100
AcDbArc
 50
3.637557263871038
 51
54.53119099999847
  0
ARC
  5
AEBB6
330
1F
100
AcDbEntity
  8
HI Detail 3
100
AcDbCircle
 10
96.05626538780178
 20
-82.91444790676452
 30
0.0
 40
1.306521578388193
100
AcDbArc
 50
153.5462989999984
 51
174.1403591200892
  0
ARC
  5
AEBB7
330
1F
100
AcDbEntity
  8
HI Detail 3
100
AcDbCircle
 10
92.69922819683843
 20
-82.85791431977186
 30
0.0
 40
2.109388733911527
100
AcDbArc
 50
2.087925989910981
 51
20.4068700000005
  0
ARC
  5
AEBB8
330
1F
100
AcDbEntity
  8
HI Detail 3
100
AcDbCircle
 10
94.07902275256345
 20
-82.88156174914288
 30
0.0
 40
0.3155275572235842
100
AcDbArc
 50
18.5729081419264
 51
77.81025399999854
  0
ARC
  5
AEBB9
330
1F
100
AcDbEntity
  8
HI Detail 3
100
AcDbCircle
 10
94.21390641599819
 20
-82.69150222469574
 30
0.0
 40
0.2075551725847646
100
AcDbArc
 50
334.4370770767586
 51
73.43806800000095
  0
ARC
  5
AEBBA
330
1F
100
AcDbEntity
  8
HI Detail 3
100
AcDbCircle
 10
94.01700519092704
 20
-82.51092909187013
 30
0.0
 40
0.4909882104619119
100
AcDbArc
 50
326.6203963104104
 51
47.18531499999797
  0
ARC
  5
AEBBB
330
1F
100
AcDbEntity
  8
HI Detail 3
100
AcDbCircle
 10
95.3128905120425
 20
-82.61405435053346
 30
0.0
 40
0.4289220006633866
100
AcDbArc
 50
144.0483609999994
 51
202.9151597307869
  0
LINE
  5
AEBBC
330
1F
100
AcDbEntity
  8
HI Deatil 2
100
AcDbLine
 10
91.07570542953721
 20
-82.78106271071449
 30
0.0
 11
95.94008832096005
 21
-82.78106271071449
 31
0.0
  0
LWPOLYLINE
  5
AEBCC
330
1F
100
AcDbEntity
  8
HI Deatil 2
100
AcDbPolyline
 90
        2
 70
     0
 43
0.0
 10
95.39044988905784
 20
-92.79107475640811
 10
106.7510369359801
 20
-92.79107475640811
  0
HATCH
  5
AEBD2
330
1F
100
AcDbEntity
  8
HI HATCH FILL
100
AcDbHatch
 10
0.0
 20
0.0
 30
0.0
210
0.0
220
0.0
230
1.0
  2
GRAVEL
 70
     0
 71
     0
 91
        1
 92
        1
 93
       14
 72
     1
 10
106.7510369359801
 20
-92.79107475640811
 11
106.8039641712355
 21
-93.53107458914804
 72
     1
 10
106.8039641712355
 20
-93.53107458914804
 11
106.8613967201241
 21
-94.33406526807285
 72
     1
 10
106.8613967201241
 20
-94.33406526807285
 11
105.8182836234284
 21
-94.33406526807285
 72
     1
 10
105.8182836234284
 20
-94.33406526807285
 11
105.0251240290957
 21
-94.2304031545628
 72
     1
 10
105.0251240290957
 20
-94.2304031545628
 11
103.7179629875566
 21
-94.5000222032557
 72
     1
 10
103.7179629875566
 20
-94.5000222032557
 11
102.0438236521058
 21
-94.25693705250877
 72
     1
 10
102.0438236521058
 20
-94.25693705250877
 11
101.0640008559304
 21
-94.56041734369486
 72
     1
 10
101.0640008559304
 20
-94.56041734369486
 11
100.0013760136226
 21
-94.33407352509611
 72
     1
 10
100.0013760136226
 20
-94.33407352509611
 11
99.4631635034514
 21
-94.45006087417263
 72
     1
 10
99.4631635034514
 20
-94.45006087417263
 11
98.26253555521001
 21
-94.19486153840253
 72
     1
 10
98.26253555521001
 20
-94.19486153840253
 11
96.32317635963946
 21
-94.3340792078451
 72
     1
 10
96.32317635963946
 20
-94.3340792078451
 11
95.28008910789532
 21
-94.3340792078451
 72
     1
 10
95.28008910789532
 20
-94.3340792078451
 11
95.39044988905784
 21
-92.79107475640811
 72
     1
 10
95.39044988905784
 20
-92.79107475640811
 11
106.7510369359801
 21
-92.79107475640811
 97
        0
 75
     1
 76
     1
 52
0.0
 41
1.5
 77
     0
 78
    41
 53
228.012787504
 43
96.36008910789533
 44
-92.8340792078451
 45
-12.00000000000009
 46
-13.5
 79
     2
 49
0.201804
 49
-19.97863207061055
 53
184.969740728
 43
96.22508910789532
 44
-92.9840792078451
 45
17.99999999999996
 46
1.500000000000052
 79
     2
 49
0.346302
 49
-34.28388714184499
 53
132.510447078
 43
95.88008910789531
 44
-93.01407920784511
 45
15.00000000000017
 46
-16.4999999999998
 79
     2
 49
0.244182
 49
-24.17404889414955
 53
267.273689006
 43
95.29508910789532
 44
-93.38907920784512
 45
1.500000000000036
 46
30.00000000000003
 79
     2
 49
0.3153569999999999
 49
-31.2203370624435
 53
292.833654178
 43
95.28008910789532
 44
-93.70407920784511
 45
-7.499999999999982
 46
18.00000000000004
 79
     2
 49
0.3092325
 49
-30.61405969213245
 53
357.273689006
 43
95.40008910789532
 44
-93.98907920784511
 45
-30.00000000000003
 46
1.500000000000038
 79
     2
 49
0.3153569999999999
 49
-31.2203370624435
 53
37.6942404667
 43
95.71508910789532
 44
-94.00407920784511
 45
-19.5
 46
-14.99999999999996
 79
     2
 49
0.4170435
 49
-41.287272823374
 53
72.2553283749
 43
96.04508910789533
 44
-93.74907920784512
 45
10.50000000000004
 46
33.00000000000001
 79
     2
 49
0.3937319999999999
 49
-38.97948224522009
 53
121.429565615
 43
96.16508910789534
 44
-93.37407920784512
 45
-12.00000000000003
 46
19.49999999999998
 79
     2
 49
0.316425
 49
-31.32610966459349
 53
175.236358309
 43
96.00008910789533
 44
-93.10407920784511
 45
16.49999999999997
 46
-1.500000000000056
 79
     2
 49
0.361248
 49
-17.70114386818845
 53
222.397437798
 43
95.64008910789532
 44
-93.07407920784511
 45
-17.99999999999994
 46
-16.49999999999996
 79
     2
 49
0.4671720000000001
 49
-46.25006250719234
 53
138.814074834
 43
96.78008910789532
 44
-93.4040792078451
 45
-10.50000000000005
 46
9.0
 79
     2
 49
0.1594515
 49
-15.78576721910204
 53
171.46923439
 43
96.66008910789532
 44
-93.29907920784512
 45
19.5
 46
-2.999999999999992
 79
     2
 49
0.3033555
 49
-30.0322671242355
 53
225.0
 43
96.36008910789533
 44
-93.25407920784511
 45
-0.0000000000000002
 46
-1.499999999999899
 79
     2
 49
0.2121315
 49
-1.90918884355965
 53
203.198590514
 43
96.25508910789532
 44
-93.07407920784511
 45
7.499999999999984
 46
2.999999999999963
 79
     2
 49
0.114237
 49
-11.30942265879585
 53
291.801409486
 43
96.15008910789534
 44
-93.11907920784511
 45
-1.499999999999525
 46
4.500000000000153
 79
     2
 49
0.1615545
 49
-7.91619271070175
 53
30.96375653209999
 43
96.21008910789534
 44
-93.26907920784512
 45
4.500000000000079
 46
2.999999999999969
 79
     2
 49
0.2623934999999999
 49
-8.484034342267946
 53
161.565051177
 43
96.43508910789533
 44
-93.13407920784511
 45
3.000000000000017
 46
-1.499999999999964
 79
     2
 49
0.1897365
 49
-4.553679990252598
 53
16.389540334
 43
95.28008910789532
 44
-93.11907920784511
 45
14.99999999999995
 46
4.500000000000065
 79
     2
 49
0.2658
 49
-26.3142677200041
 53
70.3461759419
 43
95.53508910789531
 44
-93.04407920784511
 45
-6.00000000000183
 46
-16.50000000000509
 79
     2
 49
0.2229915
 49
-22.0761116209785
 53
293.198590514
 43
96.43508910789533
 44
-92.8340792078451
 45
-2.999999999999955
 46
7.499999999999986
 79
     2
 49
0.2284725
 49
-11.19518715879585
 53
343.610459666
 43
96.52508910789533
 44
-93.04407920784511
 45
-14.99999999999995
 46
4.500000000000065
 79
     2
 49
0.2657999999999999
 49
-26.3142677200035
 53
339.44395478
 43
95.28008910789532
 44
-94.04907920784511
 45
-7.500000000000055
 46
3.000000000000036
 79
     2
 49
0.2563199999999999
 49
-12.55968561797625
 53
294.775140569
 43
95.52008910789531
 44
-94.13907920784511
 45
-7.500000000000007
 46
16.5
 79
     2
 49
0.214767
 49
-21.261964594914
 53
66.8014094864
 43
96.45008910789533
 44
-94.3340792078451
 45
2.999999999999971
 46
7.499999999999954
 79
     2
 49
0.2284725
 49
-11.19518715879585
 53
17.3540246363
 43
96.54008910789533
 44
-94.12407920784511
 45
-19.49999999999996
 46
-5.999999999999944
 79
     2
 49
0.2514465
 49
-24.89313542136
 53
69.4439547804
 43
95.71508910789532
 44
-94.3340792078451
 45
-3.00000000000001
 46
-7.499999999999932
 79
     2
 49
0.12816
 49
-12.68784561797625
 53
101.309932474
 43
96.36008910789533
 44
-94.3340792078451
 45
-1.499999999999945
 46
6.000000000000018
 79
     2
 49
0.076485
 49
-7.572044270389199
 53
165.963756532
 43
96.34508910789532
 44
-94.2590792078451
 45
4.499999999999937
 46
-1.500000000000001
 79
     2
 49
0.3092325
 49
-5.87542593842655
 53
186.009005957
 43
96.04508910789533
 44
-94.1840792078451
 45
15.00000000000007
 46
1.499999999999974
 79
     2
 49
0.286575
 49
-28.37088476181421
 53
303.690067526
 43
96.21008910789534
 44
-93.4040792078451
 45
-1.49999999999998
 46
2.999999999999978
 79
     2
 49
0.216333
 49
-5.191993913195999
 53
353.157226587
 43
96.33008910789532
 44
-93.58407920784511
 45
25.50000000000002
 46
-3.000000000000079
 79
     2
 49
0.377691
 49
-37.39134393604246
 53
60.9453959009
 43
96.70508910789532
 44
-93.62907920784511
 45
-5.999999999999963
 46
-10.49999999999996
 79
     2
 49
0.154434
 49
-15.2890112114805
 53
90.0
 43
96.78008910789532
 44
-93.49407920784511
 45
-1.499999999999999
 46
1.5
 79
     2
 49
0.09
 49
-1.409999999999999
 53
120.256437164
 43
96.01508910789533
 44
-94.13907920784511
 45
6.000000000000013
 46
-10.50000000000001
 79
     2
 49
0.208386
 49
-20.6302799841747
 53
48.01278750419999
 43
95.91008910789531
 44
-93.95907920784511
 45
12.0
 46
13.49999999999996
 79
     2
 49
0.4036080000000001
 49
-19.77682807061055
 53
0.0
 43
96.18008910789534
 44
-93.65907920784511
 45
1.5
 46
1.5
 79
     2
 49
0.39
 49
-1.109999999999999
 53
325.304846469
 43
96.57008910789533
 44
-93.65907920784511
 45
15.00000000000021
 46
-10.49999999999974
 79
     2
 49
0.237171
 49
-23.479911451263
 53
254.0546040990001
 43
96.76508910789532
 44
-93.7940792078451
 45
-1.500000000000056
 46
-6.000000000000007
 79
     2
 49
0.218403
 49
-10.70176183392075
 53
207.645975364
 43
96.70508910789532
 44
-94.00407920784511
 45
-28.49999999999992
 46
-15.00000000000007
 79
     2
 49
0.3555975
 49
-35.20421127338909
 53
175.42607874
 43
96.39008910789533
 44
-94.1690792078451
 45
-19.49999999999993
 46
1.500000000000001
 79
     2
 49
0.3761985
 49
-37.24361011195334
 98
        1
 10
0.0
 20
0.0
1001
GradientColor1ACI
1070
     5
1001
GradientColor2ACI
1070
     2
1001
ACAD
1010
77.60703266605635
1020
8.565428808258715
1030
0.0
  0
HATCH
  5
AEBD9
330
1F
100
AcDbEntity
  8
HI HATCH FILL
100
AcDbHatch
 10
0.0
 20
0.0
 30
0.0
210
0.0
220
0.0
230
1.0
  2
EARTH
 70
     0
 71
     0
 91
        3
 92
        1
 93
       14
 72
     1
 10
94.50142174902898
 20
-91.32400925974669
 11
95.32908275727804
 21
-91.32400925974669
 72
     1
 10
95.32908275727804
 20
-91.32400925974669
 11
95.64607927884305
 21
-86.89193621067904
 72
     1
 10
95.64607927884305
 20
-86.89193621067904
 11
95.78143461994272
 21
-84.9993798430283
 72
     1
 10
95.78143461994272
 20
-84.9993798430283
 11
95.94008832096005
 21
-82.78106271071449
 72
     1
 10
95.94008832096005
 20
-82.78106271071449
 11
91.07570542953721
 21
-82.78106271071449
 72
     1
 10
91.07570542953721
 20
-82.78106271071449
 11
91.73718622247156
 21
-84.43720459906097
 72
     1
 10
91.73718622247156
 20
-84.43720459906097
 11
91.90082497502755
 21
-86.2688181163158
 72
     1
 10
91.90082497502755
 20
-86.2688181163158
 11
92.36491292578483
 21
-87.84605854854454
 72
     1
 10
92.36491292578483
 20
-87.84605854854454
 11
92.04005131282849
 21
-90.07275095042684
 72
     1
 10
92.04005131282849
 20
-90.07275095042684
 11
92.4781746392945
 21
-91.32400925974669
 72
     1
 10
92.4781746392945
 20
-91.32400925974669
 11
94.13498877362711
 21
-91.32400925974669
 72
     1
 10
94.13498877362711
 20
-91.32400925974669
 11
94.22519259641523
 21
-91.25003588865444
 72
     2
 10
94.31743002220077
 20
-91.3557743914945
 40
0.1403152653790827
 50
228.9012767942157
 51
307.1503868474522
 73
     0
 72
     1
 10
94.40216769664111
 20
-91.24393566730272
 11
94.50142174902898
 21
-91.32400925974669
 97
        0
 92
        1
 93
       15
 72
     1
 10
106.8123772257898
 20
-91.32400925974669
 11
107.6402779360852
 21
-91.32400925974669
 72
     1
 10
107.6402779360852
 20
-91.32400925974669
 11
107.7328825111844
 21
-91.2493001589438
 72
     2
 10
107.8242696629135
 20
-91.35577439149447
 40
0.1403152653790729
 50
229.3604090332213
 51
307.6095190881935
 73
     0
 72
     1
 10
107.9099008121
 20
-91.24461828510623
 11
108.0067109114871
 21
-91.32400925974669
 72
     1
 10
108.0067109114871
 20
-91.32400925974669
 11
110.016104798876
 21
-91.32400925974669
 72
     1
 10
110.016104798876
 20
-91.32400925974669
 11
109.8995950155938
 21
-90.87871651059449
 72
     1
 10
109.8995950155938
 20
-90.87871651059449
 11
110.7023773878079
 21
-89.22796766124063
 72
     1
 10
110.7023773878079
 20
-89.22796766124063
 11
110.529197426303
 21
-87.41499334356332
 72
     1
 10
110.529197426303
 20
-87.41499334356332
 11
110.9404677332476
 21
-85.57398623460471
 72
     1
 10
110.9404677332476
 20
-85.57398623460471
 11
110.7437731355214
 21
-84.17088861142444
 72
     1
 10
110.7437731355214
 20
-84.17088861142444
 11
111.0657545535306
 21
-82.78106271071449
 72
     1
 10
111.0657545535306
 20
-82.78106271071449
 11
106.2013574366353
 21
-82.78106271071449
 72
     1
 10
106.2013574366353
 20
-82.78106271071449
 11
106.353814500868
 21
-84.9126345090111
 72
     1
 10
106.353814500868
 20
-84.9126345090111
 11
106.4953807042247
 21
-86.89193621067904
 72
     1
 10
106.4953807042247
 20
-86.89193621067904
 11
106.8123772257898
 21
-91.32400925974669
 97
        0
 92
        1
 93
       54
 72
     1
 10
107.6402779360852
 20
-92.52715732073355
 11
106.8984303539846
 21
-92.52715732073353
 72
     1
 10
106.8984303539846
 20
-92.52715732073353
 11
106.9773940679024
 21
-93.63118504501725
 72
     1
 10
106.9773940679024
 20
-93.63118504501725
 11
107.6764897518541
 21
-94.16821926070184
 72
     1
 10
107.6764897518541
 20
-94.16821926070184
 11
107.6764897518541
 21
-94.33407098669473
 72
     1
 10
107.6764897518541
 20
-94.33407098669473
 11
110.3318981057295
 21
-94.33406526807285
 72
     1
 10
110.3318981057295
 20
-94.33406526807285
 11
110.3318981057295
 21
-95.96411005628853
 72
     1
 10
110.3318981057295
 20
-95.96411005628853
 11
105.8182836234284
 21
-95.96411005628853
 72
     1
 10
105.8182836234284
 20
-95.96411005628853
 11
105.8182836234284
 21
-94.33406526807285
 72
     1
 10
105.8182836234284
 20
-94.33406526807285
 11
105.0251240290957
 21
-94.2304031545628
 72
     1
 10
105.0251240290957
 20
-94.2304031545628
 11
103.7179629875566
 21
-94.5000222032557
 72
     1
 10
103.7179629875566
 20
-94.5000222032557
 11
102.0438236521058
 21
-94.25693705250877
 72
     1
 10
102.0438236521058
 20
-94.25693705250877
 11
101.0640008559304
 21
-94.56041734369486
 72
     1
 10
101.0640008559304
 20
-94.56041734369486
 11
100.0013760136226
 21
-94.33407352509611
 72
     1
 10
100.0013760136226
 20
-94.33407352509611
 11
99.4631635034514
 21
-94.45006087417263
 72
     1
 10
99.4631635034514
 20
-94.45006087417263
 11
98.26253555521001
 21
-94.19486153840253
 72
     1
 10
98.26253555521001
 20
-94.19486153840253
 11
96.32317635963946
 21
-94.33406526807285
 72
     1
 10
96.32317635963946
 20
-94.33406526807285
 11
96.32317635963946
 21
-95.96411005628853
 72
     1
 10
96.32317635963946
 20
-95.96411005628853
 11
91.80956187733844
 21
-95.96411005628853
 72
     1
 10
91.80956187733844
 20
-95.96411005628853
 11
91.80956187733844
 21
-94.33406526807285
 72
     1
 10
91.80956187733844
 20
-94.33406526807285
 11
94.46498792515336
 21
-94.3340792078451
 72
     1
 10
94.46498792515336
 20
-94.3340792078451
 11
94.46497023121372
 21
-94.16821926070184
 72
     1
 10
94.46497023121372
 20
-94.16821926070184
 11
95.1640659151654
 21
-93.63118504501725
 72
     1
 10
95.1640659151654
 20
-93.63118504501725
 11
95.24302962908317
 21
-92.52715732073356
 72
     1
 10
95.24302962908317
 20
-92.52715732073356
 11
94.501421749029
 21
-92.52715732073355
 72
     1
 10
94.501421749029
 20
-92.52715732073355
 11
94.40881717392988
 21
-92.60186642153641
 72
     2
 10
94.31743002220079
 20
-92.49539218898588
 40
0.1403152653790114
 50
49.36040903316137
 51
127.6095190879083
 73
     0
 72
     1
 10
94.23179887301484
 20
-92.60654829537449
 11
94.13498877362714
 21
-92.52715732073355
 72
     1
 10
94.13498877362714
 20
-92.52715732073355
 11
92.57959903351709
 21
-92.52715732073353
 72
     1
 10
92.57959903351709
 20
-92.52715732073353
 11
91.25002071415877
 21
-93.94626793642514
 72
     1
 10
91.25002071415877
 20
-93.94626793642514
 11
90.93972438091851
 21
-95.20995157800541
 72
     1
 10
90.93972438091851
 20
-95.20995157800541
 11
91.26003032782213
 21
-95.84626385306965
 72
     1
 10
91.26003032782213
 20
-95.84626385306965
 11
91.68043216988451
 21
-96.23261719383346
 72
     1
 10
91.68043216988451
 20
-96.23261719383346
 11
93.19187658880656
 21
-96.85110880885559
 72
     1
 10
93.19187658880656
 20
-96.85110880885559
 11
95.72429653041965
 21
-96.93115188234269
 72
     1
 10
95.72429653041965
 20
-96.93115188234269
 11
97.13564529565779
 21
-97.10124351563884
 72
     1
 10
97.13564529565779
 20
-97.10124351563884
 11
97.98500227817527
 21
-97.35935105973526
 72
     1
 10
97.98500227817527
 20
-97.35935105973526
 11
98.46916673088294
 21
-97.88045503692261
 72
     1
 10
98.46916673088294
 20
-97.88045503692261
 11
99.20862343636521
 21
-98.32391803185828
 72
     1
 10
99.20862343636521
 20
-98.32391803185828
 11
100.7042963890267
 21
-98.47209409188184
 72
     1
 10
100.7042963890267
 20
-98.47209409188184
 11
101.2413991550304
 21
-98.57381847469603
 72
     1
 10
101.2413991550304
 20
-98.57381847469603
 11
102.1233788258321
 21
-98.44383731887791
 72
     1
 10
102.1233788258321
 20
-98.44383731887791
 11
103.4612265332096
 21
-97.80386903797726
 72
     1
 10
103.4612265332096
 20
-97.80386903797726
 11
104.1184554342801
 21
-97.25490691523569
 72
     1
 10
104.1184554342801
 20
-97.25490691523569
 11
104.8686594280119
 21
-97.09575139496543
 72
     1
 10
104.8686594280119
 20
-97.09575139496543
 11
105.9135242255363
 21
-96.81741906863777
 72
     1
 10
105.9135242255363
 20
-96.81741906863777
 11
107.2880215206123
 21
-96.78733315712022
 72
     1
 10
107.2880215206123
 20
-96.78733315712022
 11
109.1240288457951
 21
-97.00796325273342
 72
     1
 10
109.1240288457951
 20
-97.00796325273342
 11
111.2710537894641
 21
-95.96498471442954
 72
     1
 10
111.2710537894641
 20
-95.96498471442954
 11
111.1205613778434
 21
-93.85897020784083
 72
     1
 10
111.1205613778434
 20
-93.85897020784083
 11
110.19657886125
 21
-92.52715732073355
 72
     1
 10
110.19657886125
 20
-92.52715732073355
 11
108.0067109114871
 21
-92.52715732073353
 72
     1
 10
108.0067109114871
 20
-92.52715732073353
 11
107.9165070887005
 21
-92.60113069182457
 72
     2
 10
107.8242696629135
 20
-92.49539218898581
 40
0.140315265379069
 50
48.90127679340994
 51
127.1503868477076
 73
     0
 72
     1
 10
107.7395319884726
 20
-92.6072309131772
 11
107.6402779360852
 21
-92.52715732073355
 97
        0
 75
     1
 76
     1
 52
0.0
 41
5.0
 77
     0
 78
     6
 53
0.0
 43
91.07570542953721
 44
-98.57381847469603
 45
1.25
 46
1.25
 79
     2
 49
1.25
 49
-1.25
 53
0.0
 43
91.07570542953721
 44
-98.10506847469603
 45
1.25
 46
1.25
 79
     2
 49
1.25
 49
-1.25
 53
0.0
 43
91.07570542953721
 44
-97.63631847469603
 45
1.25
 46
1.25
 79
     2
 49
1.25
 49
-1.25
 53
90.0
 43
91.23195542953721
 44
-97.48006847469603
 45
-1.249999999999999
 46
1.25
 79
     2
 49
1.25
 49
-1.25
 53
90.0
 43
91.70070542953721
 44
-97.48006847469603
 45
-1.249999999999999
 46
1.25
 79
     2
 49
1.25
 49
-1.25
 53
90.0
 43
92.16945542953721
 44
-97.48006847469603
 45
-1.249999999999999
 46
1.25
 79
     2
 49
1.25
 49
-1.25
 98
        1
 10
0.0
 20
0.0
1001
GradientColor1ACI
1070
     5
1001
GradientColor2ACI
1070
     2
1001
ACAD
1010
78.05847324356273
1020
25.50956238854241
1030
0.0
  0
MTEXT
  5
AEBDA
330
1F
100
AcDbEntity
  8
HI Text
100
AcDbMText
 10
113.4899185020525
 20
-77.56887908880561
 30
0.0
 40
0.5
 41
0.0
 46
0.0
 71
     6
 72
     1
  1
{\fArial|b0|i0|c0|p34;1}
  7
Hunter
 73
     1
 44
1.0
  0
LEADER
  5
AEBDB
330
1F
100
AcDbEntity
  8
HI Text
100
AcDbLeader
  3
LandMatters
 76
     3
 10
100.7462525479818
 20
-88.60734470965631
 30
0.0
 10
112.3001521432179
 20
-77.59923259045987
 30
0.0
 10
112.8955875319495
 20
-77.5992325904599
 30
0.0
211
-0.0000000000000002
221
-1.0
231
0.0
1001
ACAD
1000
DSTYLE
1002
{
1070
    41
1040
0.5
1002
}
  0
CIRCLE
  5
AEBDC
330
1F
100
AcDbEntity
  8
HI Text
100
AcDbCircle
 10
113.406940154271
 20
-77.59923259045989
 30
0.0
 40
0.511352622321557
  0
MTEXT
  5
AEBDD
330
1F
100
AcDbEntity
  8
HI Text
100
AcDbMText
 10
113.505208843094
 20
-78.59446972806735
 30
0.0
 40
0.5
 41
0.0
 46
0.0
 71
     6
 72
     1
  1
{\fArial|b0|i0|c0|p34;2}
  7
Hunter
 73
     1
 44
1.0
  0
LEADER
  5
AEBDE
330
1F
100
AcDbEntity
  8
HI Text
100
AcDbLeader
  3
LandMatters
 76
     3
 10
108.2071007433841
 20
-82.78106271071449
 30
0.0
 10
112.2889579708832
 20
-78.6248232297216
 30
0.0
 10
112.9108778729909
 20
-78.62482322972164
 30
0.0
211
-0.0000000000000002
221
-1.0
231
0.0
1001
ACAD
1000
DSTYLE
1002
{
1070
    41
1040
0.5
1002
}
  0
CIRCLE
  5
AEBDF
330
1F
100
AcDbEntity
  8
HI Text
100
AcDbCircle
 10
113.4222304953125
 20
-78.62482322972162
 30
0.0
 40
0.511352622321557
  0
MTEXT
  5
AEBE0
330
1F
100
AcDbEntity
  8
HI Text
100
AcDbMText
 10
113.5204991841355
 20
-79.62006036732908
 30
0.0
 40
0.5
 41
0.5059889325313582
 46
0.0
 71
     6
 72
     1
  1
{\fArial|b0|i0|c0|p34;3}
  7
Hunter
 73
     1
 44
1.0
  0
CIRCLE
  5
AEBE1
330
1F
100
AcDbEntity
  8
HI Text
100
AcDbCircle
 10
113.4375208363539
 20
-79.65041386898336
 30
0.0
 40
0.511352622321557
  0
LEADER
  5
AEBE2
330
1F
100
AcDbEntity
  8
HI Text
100
AcDbLeader
  3
LandMatters
 76
     3
 10
101.7965424104387
 20
-90.32118466164659
 30
0.0
 10
112.3042483119247
 20
-79.65041386898334
 30
0.0
 10
112.9261682140324
 20
-79.65041386898336
 30
0.0
211
-0.0000000000000002
221
-1.0
231
0.0
1001
ACAD
1000
DSTYLE
1002
{
1070
    41
1040
0.5
1002
}
  0
MTEXT
  5
AEBE3
330
1F
100
AcDbEntity
  8
HI Text
100
AcDbMText
 10
113.5357895251769
 20
-80.64565100659082
 30
0.0
 40
0.5
 41
0.5059889325313582
 46
0.0
 71
     6
 72
     1
  1
{\fArial|b0|i0|c0|p34;4}
  7
Hunter
 73
     1
 44
1.0
  0
CIRCLE
  5
AEBE4
330
1F
100
AcDbEntity
  8
HI Text
100
AcDbCircle
 10
113.4528111773954
 20
-80.6760045082451
 30
0.0
 40
0.511352622321557
  0
LEADER
  5
AEBE5
330
1F
100
AcDbEntity
  8
HI Text
100
AcDbLeader
  3
LandMatters
 76
     3
 10
102.2492659498367
 20
-91.30964301318005
 30
0.0
 10
112.3195386529661
 20
-80.67600450824507
 30
0.0
 10
112.9414585550739
 20
-80.6760045082451
 30
0.0
211
-0.0000000000000002
221
-1.0
231
0.0
1001
ACAD
1000
DSTYLE
1002
{
1070
    41
1040
0.5
1002
}
  0
MTEXT
  5
AEBEA
330
1F
100
AcDbEntity
  8
HI Text
100
AcDbMText
 10
116.2852059312766
 20
-78.72303688669808
 30
0.0
 40
0.5
 41
0.0
 46
0.0
 71
     6
 72
     1
  1
{\fArial|b0|i0|c0|p34;1}
  7
Hunter
 73
     1
 44
1.0
  0
CIRCLE
  5
AEBEB
330
1F
100
AcDbEntity
  8
HI Text
100
AcDbCircle
 10
116.2145099951943
 20
-80.62346589578437
 30
0.0
 40
0.511352622321557
  0
MTEXT
  5
AEBEC
330
1F
100
AcDbEntity
  8
HI Text
100
AcDbMText
 10
116.2852059312766
 20
-80.59311239413009
 30
0.0
 40
0.5
 41
0.0
 46
0.0
 71
     6
 72
     1
  1
{\fArial|b0|i0|c0|p34;2}
  7
Hunter
 73
     1
 44
1.0
  0
CIRCLE
  5
AEBED
330
1F
100
AcDbEntity
  8
HI Text
100
AcDbCircle
 10
116.2145099951943
 20
-78.75339038835235
 30
0.0
 40
0.511352622321557
  0
LWPOLYLINE
  5
AEBEE
330
1F
100
AcDbEntity
  8
HI Text
100
AcDbPolyline
 90
        2
 70
     0
 43
0.0
 10
115.449017339929
 20
-78.03339648094158
 10
126.2083311999191
 20
-78.03339648094158
  0
MTEXT
  5
AEBEF
330
1F
100
AcDbEntity
  8
HI Text
100
AcDbMText
 10
118.5834765560106
 20
-77.475250279904
 30
0.0
 40
0.7499999999999999
 41
0.0
 46
0.0
 71
     6
 72
     1
  1
{\fArial|b0|i0|c0|p34;LEGEND:}
  7
Hunter
 73
     1
 44
1.0
  0
MTEXT
  5
AEBF0
330
1F
100
AcDbEntity
  8
HI Text
100
AcDbMText
 10
116.8353187279309
 20
-78.43702861095721
 30
0.0
 40
0.5
 41
14.36766712141882
 46
0.6558663028649381
 71
     1
 72
     1
  1
\A1;{\fArial|b0|i0|c0|p34;AIR RELIEF VALVE}
  7
Hunter
 73
     1
 44
1.0
  0
CIRCLE
  5
AEBF1
330
1F
100
AcDbEntity
  8
HI Text
100
AcDbCircle
 10
116.2145099951943
 20
-82.610911597279
 30
0.0
 40
0.511352622321557
  0
MTEXT
  5
AEBF2
330
1F
100
AcDbEntity
  8
HI Text
100
AcDbMText
 10
116.2852059312766
 20
-82.58055809562472
 30
0.0
 40
0.5
 41
0.2318212824010922
 46
0.0
 71
     6
 72
     1
  1
{\fArial|b0|i0|c0|p34;3}
  7
Hunter
 73
     1
 44
1.0
  0
CIRCLE
  5
AEBF3
330
1F
100
AcDbEntity
  8
HI Text
100
AcDbCircle
 10
116.2145099951943
 20
-84.65646217835413
 30
0.0
 40
0.511352622321557
  0
MTEXT
  5
AEBF4
330
1F
100
AcDbEntity
  8
HI Text
100
AcDbMText
 10
116.2852059312766
 20
-84.62610867669985
 30
0.0
 40
0.5
 41
0.2318212824010929
 46
0.0
 71
     6
 72
     1
  1
{\fArial|b0|i0|c0|p34;4}
  7
Hunter
 73
     1
 44
1.0
  0
MTEXT
  5
AEBF5
330
1F
100
AcDbEntity
  8
HI Text
100
AcDbMText
 10
116.8353319039054
 20
-84.62481947277414
 30
0.0
 40
0.5
 41
14.36766712141882
 46
0.0
 71
     4
 72
     1
  1
\A1;{\fArial|b0|i0|c0|p34;PLD-075-TBTEE FITTING}
  7
Hunter
 73
     1
 44
1.0
  0
MTEXT
  5
AEBF9
330
1F
100
AcDbEntity
  8
HI Text
100
AcDbMText
 10
116.8353319039054
 20
-80.3413330347239
 30
0.0
 40
0.5
 41
14.36766712141882
 46
0.0
 71
     1
 72
     1
  1
\A1;{\fArial|b0|i0|c0|p34;FINISHED GRADE}
  7
Hunter
 73
     1
 44
1.0
  0
MTEXT
  5
AEBFA
330
1F
100
AcDbEntity
  8
HI Text
100
AcDbMText
 10
116.8353319039054
 20
-82.33243612863427
 30
0.0
 40
0.5
 41
14.36766712141882
 46
0.0
 71
     1
 72
     1
  1
\A1;{\fArial|b0|i0|c0|p34;3/4" MPT X 1/2" FPT BUSHING}
  7
Hunter
 73
     1
 44
1.0
  0
MTEXT
  5
AEC07
330
1F
100
AcDbEntity
  8
HI Text
100
AcDbMText
 10
116.8353187279309
 20
-92.48378343019705
 30
0.0
 40
0.5
 41
14.36766712141882
 46
0.0
 71
     1
 72
     1
  1
\A1;{\fArial|b0|i0|c0|p34;NOTES \PAIR RELIEF VALVE TO BE INSTALLED AT\POPTIMAL HIGHEST POINT FROM\PCONTROL ZONE KIT.  MULTIPLE AIR\PRELIEF VALVES MAY BE NEEDED TO\PACCOMMODATE DIFFERENCES IN GRADE.}
  7
Hunter
 73
     1
 44
1.0
  0
CIRCLE
  5
AEC08
330
1F
100
AcDbEntity
  8
HI Text
100
AcDbCircle
 10
92.6457865565459
 20
-101.6421989973995
 30
0.0
 40
1.633232321863463
  0
CIRCLE
  5
AEC09
330
1F
100
AcDbEntity
  8
HI Text
100
AcDbCircle
 10
97.7340094147104
 20
-102.1021849920685
 30
0.0
 40
0.0666400503025599
  0
LINE
  5
AEC0A
330
1F
100
AcDbEntity
  8
HI Text
100
AcDbLine
 10
94.27901887840894
 20
-101.6421989973995
 30
0.0
 11
126.1727977219939
 21
-101.6421989973995
 31
0.0
  0
TEXT
  5
AEC0B
330
1F
100
AcDbEntity
  8
HI Text
100
AcDbText
 10
97.70670879636975
 20
-102.1429173635489
 30
0.0
 40
0.0866448019748771
  1
R
  7
STYLE1
 72
     1
 11
97.73559039702805
 21
-102.1429173635489
 31
0.0
100
AcDbText
  0
HATCH
  5
AEC0C
330
1F
100
AcDbEntity
  8
HI Text
100
AcDbHatch
 10
0.0
 20
0.0
 30
0.0
210
0.0
220
0.0
230
1.0
  2
SOLID
 70
     1
 71
     1
 91
       10
 92
        1
 93
        9
 72
     1
 10
96.40734591843465
 20
-102.2388509977913
 11
96.68778135124059
 21
-101.9919573454365
 72
     1
 10
96.68778135124059
 20
-101.9919573454365
 11
96.68778135124059
 21
-102.1849476148706
 72
     1
 10
96.68778135124059
 20
-102.1849476148706
 11
96.7714822563969
 21
-102.1849476148706
 72
     1
 10
96.7714822563969
 20
-102.1849476148706
 11
96.77148225639697
 21
-102.2388509977913
 72
     1
 10
96.77148225639697
 20
-102.2388509977913
 11
96.68778135124059
 21
-102.2388509977913
 72
     1
 10
96.68778135124059
 20
-102.2388509977913
 11
96.68778135124059
 21
-102.6761045263282
 72
     1
 10
96.68778135124059
 20
-102.6761045263282
 11
96.47919869559094
 21
-102.6761045263282
 72
     1
 10
96.47919869559094
 20
-102.6761045263282
 11
96.47919869559094
 21
-102.2388509977913
 72
     1
 10
96.47919869559094
 20
-102.2388509977913
 11
96.40734591843465
 21
-102.2388509977913
 97
        1
330
AEC16
 92
        1
 93
        4
 72
     1
 10
96.17669832522473
 20
-102.6761045263282
 11
95.9681156695751
 21
-102.6761045263282
 72
     1
 10
95.9681156695751
 20
-102.6761045263282
 11
95.9681156695751
 21
-102.1849476148706
 72
     1
 10
95.9681156695751
 20
-102.1849476148706
 11
96.17669832522473
 21
-102.1849476148706
 72
     1
 10
96.17669832522473
 20
-102.1849476148706
 11
96.17669832522473
 21
-102.6761045263282
 97
        1
330
AEC15
 92
        1
 93
       12
 72
     1
 10
95.15545789919562
 20
-102.3305871898427
 11
95.15545789919562
 21
-102.6761045263282
 72
     1
 10
95.15545789919562
 20
-102.6761045263282
 11
95.41001469755647
 21
-102.6761045263282
 72
     1
 10
95.41001469755647
 20
-102.6761045263282
 11
95.41001469755647
 21
-101.9857394605985
 72
     1
 10
95.41001469755647
 20
-101.9857394605985
 11
95.15545789919562
 21
-101.9857394605985
 72
     1
 10
95.15545789919562
 20
-101.9857394605985
 11
95.15545789919567
 21
-102.2666396983033
 72
     1
 10
95.15545789919567
 20
-102.2666396983033
 11
95.08738671752309
 21
-102.2666396983033
 72
     1
 10
95.08738671752309
 20
-102.2666396983033
 11
95.08738671752327
 21
-101.9857394605985
 72
     1
 10
95.08738671752327
 20
-101.9857394605985
 11
94.83282991916224
 21
-101.9857394605985
 72
     1
 10
94.83282991916224
 20
-101.9857394605985
 11
94.83282991916224
 21
-102.6761045263282
 72
     1
 10
94.83282991916224
 20
-102.6761045263282
 11
95.08738671752318
 21
-102.6761045263282
 72
     1
 10
95.08738671752318
 20
-102.6761045263282
 11
95.08738671752318
 21
-102.3305871898427
 72
     1
 10
95.08738671752318
 20
-102.3305871898427
 11
95.15545789919562
 21
-102.3305871898427
 97
        1
330
AEC14
 92
        1
 93
        6
 72
     2
 10
96.97110929828115
 20
-102.3200371620725
 40
0.3557288469148716
 50
269.999999999855
 51
311.0226094260925
 73
     1
 72
     1
 10
97.20459434343441
 20
-102.5884170164155
 11
97.20459434342451
 21
-102.5233410960492
 72
     2
 10
96.97110929827079
 20
-102.2925832651851
 40
0.3282749500274737
 50
44.66341740663327
 51
94.35762720154706
 73
     0
 72
     1
 10
96.94616642854358
 20
-102.6199092434779
 11
96.94616642854295
 21
-102.1852861322114
 72
     2
 10
96.95905636793771
 20
-102.4305260705994
 40
0.2455784557287565
 50
93.00872752319534
 51
266.9912724769641
 73
     1
 72
     1
 10
96.94616642854363
 20
-102.6757660089874
 11
96.97110929828024
 21
-102.6757660089874
 97
        1
330
AEC13
 92
        1
 93
        4
 72
     1
 10
97.23738911729597
 20
-102.6761045263208
 11
97.23738911729597
 21
-102.1849476148633
 72
     1
 10
97.23738911729597
 20
-102.1849476148633
 11
97.44597177294561
 21
-102.1849476148633
 72
     1
 10
97.44597177294561
 20
-102.1849476148633
 11
97.44597177294561
 21
-102.6761045263208
 72
     1
 10
97.44597177294561
 20
-102.6761045263208
 11
97.23738911729597
 21
-102.6761045263208
 97
        1
330
AEC12
 92
        1
 93
        5
 72
     1
 10
96.22367687879787
 20
-102.1849476148706
 11
96.22367687879787
 21
-102.6761045263282
 72
     1
 10
96.22367687879787
 20
-102.6761045263282
 11
96.43225953444748
 21
-102.6761045263282
 72
     1
 10
96.43225953444748
 20
-102.6761045263282
 11
96.43225953444748
 21
-102.3399167979595
 72
     2
 10
96.27729035135867
 20
-102.3399167979595
 40
0.1549691830888094
 50
0.0
 51
90.0
 73
     1
 72
     1
 10
96.27729035135867
 20
-102.1849476148707
 11
96.22367687879787
 21
-102.1849476148706
 97
        1
330
AEC11
 92
        1
 93
        5
 72
     1
 10
95.71255446035234
 20
-102.1849476148706
 11
95.92113711600202
 21
-102.1849476148706
 72
     1
 10
95.92113711600202
 20
-102.1849476148706
 11
95.92113711600202
 21
-102.5211353432393
 72
     2
 10
95.76616793291316
 20
-102.5211353432393
 40
0.1549691830888591
 50
0.0000000000104831
 51
90.00000000001312
 73
     0
 72
     1
 10
95.76616793291313
 20
-102.6761045263281
 11
95.71255446035234
 21
-102.6761045263282
 72
     1
 10
95.71255446035234
 20
-102.6761045263282
 11
95.71255446035234
 21
-102.1849476148706
 97
        1
330
AEC10
 92
        1
 93
        5
 72
     1
 10
95.61196243421839
 20
-102.6761045263282
 11
95.66557590677918
 21
-102.6761045263282
 72
     1
 10
95.66557590677918
 20
-102.6761045263282
 11
95.66557590677918
 21
-102.1849476148706
 72
     1
 10
95.66557590677918
 20
-102.1849476148706
 11
95.45699325112959
 21
-102.1849476148706
 72
     1
 10
95.45699325112959
 20
-102.1849476148706
 11
95.45699325112959
 21
-102.5211353432393
 72
     2
 10
95.61196243421843
 20
-102.5211353432393
 40
0.1549691830888378
 50
179.9999999999895
 51
269.9999999999895
 73
     1
 97
        1
330
AEC0F
 92
        1
 93
        5
 72
     1
 10
97.21391953672117
 20
-102.4305260705991
 11
97.21391953672851
 21
-102.3725756244933
 72
     2
 10
97.0084152169151
 20
-102.3904314378717
 40
0.206278587190675
 50
4.965831443762698
 51
83.9913280435104
 73
     1
 72
     1
 10
97.03000825048862
 20
-102.1852861322114
 11
96.99605216801678
 21
-102.1852861321979
 72
     1
 10
96.99605216801678
 20
-102.1852861321979
 11
96.99605216801678
 21
-102.4305260705991
 72
     1
 10
96.99605216801678
 20
-102.4305260705991
 11
97.21391953672117
 21
-102.4305260705991
 97
        1
330
AEC0E
 92
        1
 93
        1
 72
     2
 10
97.56904543065338
 20
-102.2845516919994
 40
0.0996040771360683
 50
0.0
 51
360.0
 73
     1
 97
        1
330
AEC0D
 75
     1
 76
     1
 98
        1
 10
83.18956387181383
 20
-52.82158772597743
450
        0
451
        0
460
0.0
461
0.0
452
        0
462
1.0
453
        2
463
0.0
 63
     5
421
      255
463
1.0
 63
     2
421
 16776960
470
LINEAR
1001
GradientColor1ACI
1070
     5
1001
GradientColor2ACI
1070
     2
1001
ACAD
1010
11.64326604734842
1020
-49.85451680035078
1030
0.0
  0
CIRCLE
  5
AEC0D
102
{ACAD_REACTORS
330
AEC0C
102
}
330
1F
100
AcDbEntity
  8
HI Text
100
AcDbCircle
 10
97.56904543065338
 20
-102.2845516919994
 30
0.0
 40
0.0996040771360683
  0
LWPOLYLINE
  5
AEC0E
102
{ACAD_REACTORS
330
AEC0C
102
}
330
1F
100
AcDbEntity
  8
HI Text
100
AcDbPolyline
 90
        5
 70
     1
 43
0.0
 10
97.21391953672117
 20
-102.4305260705991
 10
97.21391953672851
 20
-102.3725756244933
 42
0.3591622824268968
 10
97.03000825048862
 20
-102.1852861322114
 10
96.99605216801678
 20
-102.1852861321979
 10
96.99605216801678
 20
-102.4305260705991
  0
LWPOLYLINE
  5
AEC0F
102
{ACAD_REACTORS
330
AEC0C
102
}
330
1F
100
AcDbEntity
  8
HI Text
100
AcDbPolyline
 90
        5
 70
     1
 43
0.0
 10
95.61196243421839
 20
-102.6761045263282
 10
95.66557590677918
 20
-102.6761045263282
 10
95.66557590677918
 20
-102.1849476148706
 10
95.45699325112959
 20
-102.1849476148706
 10
95.45699325112959
 20
-102.5211353432393
 42
0.4142135623730951
  0
LWPOLYLINE
  5
AEC10
102
{ACAD_REACTORS
330
AEC0C
102
}
330
1F
100
AcDbEntity
  8
HI Text
100
AcDbPolyline
 90
        5
 70
     1
 43
0.0
 10
95.71255446035234
 20
-102.1849476148706
 10
95.92113711600202
 20
-102.1849476148706
 10
95.92113711600202
 20
-102.5211353432393
 42
-0.4142135623730951
 10
95.76616793291313
 20
-102.6761045263281
 10
95.71255446035234
 20
-102.6761045263282
  0
LWPOLYLINE
  5
AEC11
102
{ACAD_REACTORS
330
AEC0C
102
}
330
1F
100
AcDbEntity
  8
HI Text
100
AcDbPolyline
 90
        5
 70
     1
 43
0.0
 10
96.22367687879787
 20
-102.1849476148706
 10
96.22367687879787
 20
-102.6761045263282
 10
96.43225953444748
 20
-102.6761045263282
 10
96.43225953444748
 20
-102.3399167979595
 42
0.4142135623730948
 10
96.27729035135867
 20
-102.1849476148707
  0
LWPOLYLINE
  5
AEC12
102
{ACAD_REACTORS
330
AEC0C
102
}
330
1F
100
AcDbEntity
  8
HI Text
100
AcDbPolyline
 90
        4
 70
     1
 43
0.0
 10
97.23738911729597
 20
-102.6761045263208
 10
97.23738911729597
 20
-102.1849476148633
 10
97.44597177294561
 20
-102.1849476148633
 10
97.44597177294561
 20
-102.6761045263208
  0
LWPOLYLINE
  5
AEC13
102
{ACAD_REACTORS
330
AEC0C
102
}
330
1F
100
AcDbEntity
  8
HI Text
100
AcDbPolyline
 90
        7
 70
     0
 43
0.0
 10
96.97110929828024
 20
-102.6757660089874
 42
0.1809313373683727
 10
97.20459434343441
 20
-102.5884170164155
 10
97.20459434342451
 20
-102.5233410960492
 42
-0.2202952373044754
 10
96.94616642854358
 20
-102.6199092434779
 10
96.94616642854295
 20
-102.1852861322114
 42
0.9488198287109453
 10
96.94616642854363
 20
-102.6757660089874
 10
96.97110929828024
 20
-102.6757660089874
  0
LWPOLYLINE
  5
AEC14
102
{ACAD_REACTORS
330
AEC0C
102
}
330
1F
100
AcDbEntity
  8
HI Text
100
AcDbPolyline
 90
       12
 70
     1
 43
0.0
 10
95.15545789919562
 20
-102.3305871898427
 10
95.15545789919562
 20
-102.6761045263282
 10
95.41001469755647
 20
-102.6761045263282
 10
95.41001469755647
 20
-101.9857394605985
 10
95.15545789919562
 20
-101.9857394605985
 10
95.15545789919567
 20
-102.2666396983033
 10
95.08738671752309
 20
-102.2666396983033
 10
95.08738671752327
 20
-101.9857394605985
 10
94.83282991916224
 20
-101.9857394605985
 10
94.83282991916224
 20
-102.6761045263282
 10
95.08738671752318
 20
-102.6761045263282
 10
95.08738671752318
 20
-102.3305871898427
  0
LWPOLYLINE
  5
AEC15
102
{ACAD_REACTORS
330
AEC0C
102
}
330
1F
100
AcDbEntity
  8
HI Text
100
AcDbPolyline
 90
        4
 70
     1
 43
0.0
 10
96.17669832522473
 20
-102.6761045263282
 10
95.9681156695751
 20
-102.6761045263282
 10
95.9681156695751
 20
-102.1849476148706
 10
96.17669832522473
 20
-102.1849476148706
  0
LWPOLYLINE
  5
AEC16
102
{ACAD_REACTORS
330
AEC0C
102
}
330
1F
100
AcDbEntity
  8
HI Text
100
AcDbPolyline
 90
        9
 70
     1
 43
0.0
 10
96.40734591843465
 20
-102.2388509977913
 10
96.68778135124059
 20
-101.9919573454365
 10
96.68778135124059
 20
-102.1849476148706
 10
96.7714822563969
 20
-102.1849476148706
 10
96.77148225639697
 20
-102.2388509977913
 10
96.68778135124059
 20
-102.2388509977913
 10
96.68778135124059
 20
-102.6761045263282
 10
96.47919869559094
 20
-102.6761045263282
 10
96.47919869559094
 20
-102.2388509977913
  0
MTEXT
  5
AEC17
102
{ACAD_XDICTIONARY
360
AEC18
102
}
330
1F
100
AcDbEntity
  8
HI Text
100
AcDbMText
 10
139.0382021572405
 20
-100.8288854240223
 30
0.0
 40
0.9703124999999996
 41
44.32944603482724
 46
2.604708816507542
 71
     6
 72
     1
  1
{\fArial|b0|i0|c0|p34;AIR RELIEF VALVE - TUBING}
  7
Hunter
 73
     1
 44
1.0
  0
MTEXT
  5
AEC19
330
1F
100
AcDbEntity
  8
HI Text
100
AcDbMText
 10
125.7545761938887
 20
-102.2229069328338
 30
0.0
 40
0.5624999999999999
 41
0.0
 46
0.0
 71
     6
 72
     1
  1
{\fArial|b0|i0|c0|p34;NOT TO SCALE}
  7
Hunter
 73
     1
 44
1.0
  0
MTEXT
  5
AEC1A
330
1F
100
AcDbEntity
  8
HI Text
100
AcDbMText
 10
93.54937204450115
 20
-101.6749065152672
 30
0.0
 40
1.455468749999999
 41
0.0
 46
0.0
 71
     6
 72
     1
  1
{\fArial|b0|i0|c0|p34;XX}
  7
Hunter
 73
     1
 44
1.0
  0
MTEXT
  5
AEC1B
102
{ACAD_XDICTIONARY
360
AEC1C
102
}
330
1F
100
AcDbEntity
  8
HI Text
100
AcDbMText
 10
98.5457508959487
 20
-101.9857394605985
 30
0.0
 40
0.9703124999999996
 41
33.6762967440676
 46
0.0
 71
     1
 72
     1
  1
{\fArial|b0|i0|c0|p34;HM.ARV.02}
  7
Hunter
 73
     1
 44
1.0
  0
LINE
  5
AF081
330
1F
100
AcDbEntity
  8
HI Deatil 2
100
AcDbLine
 10
99.12813043452064
 20
-91.32400925974669
 30
0.0
 11
96.10469546997558
 21
-91.32400925974669
 31
0.0
  0
LINE
  5
AF082
330
1F
100
AcDbEntity
  8
HI Deatil 2
100
AcDbLine
 10
94.13498877362712
 20
-91.32400925974669
 30
0.0
 11
91.38590651057027
 21
-91.32400925974669
 31
0.0
  0
LINE
  5
AF083
330
1F
100
AcDbEntity
  8
HI Deatil 2
100
AcDbLine
 10
99.13226486434609
 20
-92.52715732073355
 30
0.0
 11
96.10469546997563
 21
-92.52715732073355
 31
0.0
  0
LINE
  5
AF084
330
1F
100
AcDbEntity
  8
HI Deatil 2
100
AcDbLine
 10
94.13498877362716
 20
-92.52715732073355
 30
0.0
 11
91.39253540548409
 21
-92.52715732073355
 31
0.0
  0
LINE
  5
AF160
330
1F
100
AcDbEntity
  8
HI Deatil 2
100
AcDbLine
 10
94.50142174902898
 20
-91.32400925974669
 30
0.0
 11
95.73826249457368
 21
-91.32400925974669
 31
0.0
  0
LWPOLYLINE
  5
AF161
102
{ACAD_REACTORS
330
AEBD9
102
}
330
1F
100
AcDbEntity
  8
HI Deatil 2
100
AcDbPolyline
 90
        2
 70
     0
 43
0.0
 10
94.50142174902898
 20
-91.32400925974669
 10
95.73826249457368
 20
-91.32400925974669
  0
LWPOLYLINE
  5
AF162
102
{ACAD_REACTORS
330
AEBD9
102
}
330
1F
100
AcDbEntity
  8
HI Deatil 2
100
AcDbPolyline
 90
        2
 70
     0
 43
0.0
 10
94.50142174902902
 20
-92.52715732073355
 10
95.73826249457374
 20
-92.52715732073355
  0
LWPOLYLINE
  5
AF163
102
{ACAD_REACTORS
330
AEBD9
102
}
330
1F
100
AcDbEntity
  8
HI Deatil 2
100
AcDbPolyline
 90
        2
 70
     0
 43
0.0
 10
94.13498877362712
 20
-91.32400925974669
 10
94.23179887301458
 20
-91.24461828510595
  0
LWPOLYLINE
  5
AF164
102
{ACAD_REACTORS
330
AEBD9
102
}
330
1F
100
AcDbEntity
  8
HI Deatil 2
100
AcDbPolyline
 90
        2
 70
     0
 43
0.0
 10
94.50142174902898
 20
-91.32400925974669
 10
94.40216769664226
 20
-91.24393566730365
  0
ARC
  5
AF165
102
{ACAD_REACTORS
330
AEBD9
102
}
330
1F
100
AcDbEntity
  8
HI Deatil 2
100
AcDbCircle
 10
94.31743002220077
 20
-91.35577439149441
 30
0.0
 40
0.1403152653790171
100
AcDbArc
 50
52.84961315188676
 51
127.6095190880155
  0
LWPOLYLINE
  5
AF166
330
1F
100
AcDbEntity
  8
HI HATCH FILL
100
AcDbPolyline
 90
        2
 70
     0
 43
0.0
 10
94.31686782468586
 20
-91.52755581122454
 10
94.31686782468586
 20
-92.32487464075777
  0
LWPOLYLINE
  5
AF167
102
{ACAD_REACTORS
330
AEBD9
102
}
330
1F
100
AcDbEntity
  8
HI Deatil 2
100
AcDbPolyline
 90
        2
 70
     0
 43
0.0
 10
94.13498877362716
 20
-92.52715732073355
 10
94.23179887301461
 20
-92.60654829537429
  0
LWPOLYLINE
  5
AF168
102
{ACAD_REACTORS
330
AEBD9
102
}
330
1F
100
AcDbEntity
  8
HI Deatil 2
100
AcDbPolyline
 90
        2
 70
     0
 43
0.0
 10
94.50142174902902
 20
-92.52715732073355
 10
94.4021676966423
 20
-92.60723091317663
  0
ARC
  5
AF169
102
{ACAD_REACTORS
330
AEBD9
102
}
330
1F
100
AcDbEntity
  8
HI Deatil 2
100
AcDbCircle
 10
94.31743002220079
 20
-92.49539218898588
 30
0.0
 40
0.1403152653790171
100
AcDbArc
 50
232.3904809119845
 51
307.1503868481133
  0
LWPOLYLINE
  5
AF16A
330
1F
100
AcDbEntity
  8
HI Deatil 2
100
AcDbPolyline
 90
        2
 70
     0
 43
0.0
 10
95.73826249457368
 20
-91.32400925974669
 10
95.83507259396123
 20
-91.24461828510595
  0
LWPOLYLINE
  5
AF16B
330
1F
100
AcDbEntity
  8
HI Deatil 2
100
AcDbPolyline
 90
        2
 70
     0
 43
0.0
 10
96.10469546997558
 20
-91.32400925974669
 10
96.00544141758888
 20
-91.24393566730365
  0
ARC
  5
AF16C
330
1F
100
AcDbEntity
  8
HI Deatil 2
100
AcDbCircle
 10
95.92070374314735
 20
-91.35577439149441
 30
0.0
 40
0.1403152653790171
100
AcDbArc
 50
52.84961315188676
 51
127.6095190880155
  0
LWPOLYLINE
  5
AF16D
330
1F
100
AcDbEntity
  8
HI HATCH FILL
100
AcDbPolyline
 90
        2
 70
     0
 43
0.0
 10
95.92014154563248
 20
-91.52755581122454
 10
95.92014154563248
 20
-92.32487464075777
  0
LWPOLYLINE
  5
AF16E
330
1F
100
AcDbEntity
  8
HI Deatil 2
100
AcDbPolyline
 90
        2
 70
     0
 43
0.0
 10
95.73826249457374
 20
-92.52715732073355
 10
95.83507259396126
 20
-92.60654829537429
  0
LWPOLYLINE
  5
AF16F
330
1F
100
AcDbEntity
  8
HI Deatil 2
100
AcDbPolyline
 90
        2
 70
     0
 43
0.0
 10
96.10469546997563
 20
-92.52715732073355
 10
96.00544141758891
 20
-92.60723091317663
  0
ARC
  5
AF170
330
1F
100
AcDbEntity
  8
HI Deatil 2
100
AcDbCircle
 10
95.92070374314738
 20
-92.49539218898588
 30
0.0
 40
0.1403152653790171
100
AcDbArc
 50
232.3904809119845
 51
307.1503868481133
  0
CIRCLE
  5
AF171
330
1F
100
AcDbEntity
  8
HI HATCH FILL
100
AcDbCircle
 10
95.11850468515911
 20
-91.92621522599115
 30
0.0
 40
0.1335487093825943
  0
LINE
  5
AF1C2
330
1F
100
AcDbEntity
  8
HI Detail 3
100
AcDbLine
 10
103.4056359065693
 20
-92.44148305938763
 30
0.0
 11
103.4056359065693
 21
-91.40662054236202
 31
0.0
  0
LINE
  5
AF1C3
330
1F
100
AcDbEntity
  8
HI Detail 3
100
AcDbLine
 10
102.8368389628677
 20
-92.5775125849894
 30
0.0
 11
102.8368389628677
 21
-91.27059101676008
 31
0.0
  0
LINE
  5
AF1C4
330
1F
100
AcDbEntity
  8
HI Detail 3
100
AcDbLine
 10
102.8368389628677
 20
-91.27059101676008
 30
0.0
 11
103.0204525551438
 21
-91.40662054236202
 31
0.0
  0
LINE
  5
AF1C5
330
1F
100
AcDbEntity
  8
HI Detail 3
100
AcDbLine
 10
103.0204525551438
 20
-91.40662054236202
 30
0.0
 11
103.0204525551438
 21
-92.44148305938763
 31
0.0
  0
LINE
  5
AF1C6
330
1F
100
AcDbEntity
  8
HI Detail 3
100
AcDbLine
 10
102.8368389628677
 20
-92.5775125849894
 30
0.0
 11
103.0204525551438
 21
-92.44148305938763
 31
0.0
  0
LINE
  5
AF1C7
330
1F
100
AcDbEntity
  8
HI Detail 3
100
AcDbLine
 10
103.0204525551438
 20
-91.40662054236202
 30
0.0
 11
103.4056359065693
 21
-91.40662054236202
 31
0.0
  0
LINE
  5
AF1C8
330
1F
100
AcDbEntity
  8
HI Detail 3
100
AcDbLine
 10
103.0204525551438
 20
-92.44148305938763
 30
0.0
 11
103.4056359065693
 21
-92.44148305938763
 31
0.0
  0
LINE
  5
AF1C9
330
1F
100
AcDbEntity
  8
HI Detail 3
100
AcDbLine
 10
101.7426176995253
 20
-91.40662054236202
 30
0.0
 11
102.2492659498367
 21
-91.40662054236202
 31
0.0
  0
LINE
  5
AF1CA
330
1F
100
AcDbEntity
  8
HI Detail 3
100
AcDbLine
 10
101.7423837562071
 20
-92.44148305938763
 30
0.0
 11
102.2492659498367
 21
-92.44148305938763
 31
0.0
  0
LINE
  5
AF1CB
330
1F
100
AcDbEntity
  8
HI Detail 3
100
AcDbLine
 10
102.3602235766992
 20
-91.30964301318005
 30
0.0
 11
102.2492659498367
 21
-91.30964301318005
 31
0.0
  0
LINE
  5
AF1CC
330
1F
100
AcDbEntity
  8
HI Detail 3
100
AcDbLine
 10
102.3602235766992
 20
-91.30964301318005
 30
0.0
 11
102.3602235766992
 21
-92.53846058856936
 31
0.0
  0
LINE
  5
AF1CD
330
1F
100
AcDbEntity
  8
HI Detail 3
100
AcDbLine
 10
102.2492659498367
 20
-91.30964301318005
 30
0.0
 11
102.2492659498367
 21
-92.53846058856936
 31
0.0
  0
LINE
  5
AF1CE
330
1F
100
AcDbEntity
  8
HI Detail 3
100
AcDbLine
 10
102.3602235766992
 20
-92.53846058856936
 30
0.0
 11
102.2492659498367
 21
-92.53846058856936
 31
0.0
  0
LINE
  5
AF1D0
330
1F
100
AcDbEntity
  8
HI Detail 3
100
AcDbLine
 10
102.2492659498367
 20
-91.40662054236202
 30
0.0
 11
102.2492659498367
 21
-91.30964301318005
 31
0.0
  0
LINE
  5
AF1D1
330
1F
100
AcDbEntity
  8
HI Detail 3
100
AcDbLine
 10
98.7360637785447
 20
-92.44148305938763
 30
0.0
 11
98.7360637785447
 21
-91.40662054236202
 31
0.0
  0
LINE
  5
AF1D2
330
1F
100
AcDbEntity
  8
HI Detail 3
100
AcDbLine
 10
99.30486072224633
 20
-92.5775125849894
 30
0.0
 11
99.30486072224633
 21
-91.27059101676008
 31
0.0
  0
LINE
  5
AF1D3
330
1F
100
AcDbEntity
  8
HI Detail 3
100
AcDbLine
 10
99.30486072224633
 20
-91.27059101676008
 30
0.0
 11
99.12124712997025
 21
-91.40662054236202
 31
0.0
  0
LINE
  5
AF1D4
330
1F
100
AcDbEntity
  8
HI Detail 3
100
AcDbLine
 10
99.12124712997025
 20
-91.40662054236202
 30
0.0
 11
99.12124712997025
 21
-92.44148305938763
 31
0.0
  0
LINE
  5
AF1D5
330
1F
100
AcDbEntity
  8
HI Detail 3
100
AcDbLine
 10
99.30486072224633
 20
-92.5775125849894
 30
0.0
 11
99.12124712997025
 21
-92.44148305938763
 31
0.0
  0
LINE
  5
AF1D6
330
1F
100
AcDbEntity
  8
HI Detail 3
100
AcDbLine
 10
99.12124712997025
 20
-91.40662054236202
 30
0.0
 11
98.7360637785447
 21
-91.40662054236202
 31
0.0
  0
LINE
  5
AF1D7
330
1F
100
AcDbEntity
  8
HI Detail 3
100
AcDbLine
 10
99.12124712997025
 20
-92.44148305938763
 30
0.0
 11
98.7360637785447
 21
-92.44148305938763
 31
0.0
  0
LINE
  5
AF1D8
330
1F
100
AcDbEntity
  8
HI Detail 3
100
AcDbLine
 10
100.399182098306
 20
-91.40662054236202
 30
0.0
 11
99.8924337352774
 21
-91.40662054236202
 31
0.0
  0
LINE
  5
AF1D9
330
1F
100
AcDbEntity
  8
HI Detail 3
100
AcDbLine
 10
100.3991820983061
 20
-92.44148305938763
 30
0.0
 11
99.89243373527736
 21
-92.44148305938763
 31
0.0
  0
LINE
  5
AF1DA
330
1F
100
AcDbEntity
  8
HI Detail 3
100
AcDbLine
 10
99.78147610841492
 20
-91.30964301318005
 30
0.0
 11
99.8924337352774
 21
-91.30964301318005
 31
0.0
  0
LINE
  5
AF1DB
330
1F
100
AcDbEntity
  8
HI Detail 3
100
AcDbLine
 10
99.78147610841492
 20
-91.30964301318005
 30
0.0
 11
99.78147610841492
 21
-92.53846058856936
 31
0.0
  0
LINE
  5
AF1DC
330
1F
100
AcDbEntity
  8
HI Detail 3
100
AcDbLine
 10
99.8924337352774
 20
-91.30964301318005
 30
0.0
 11
99.8924337352774
 21
-92.53846058856936
 31
0.0
  0
LINE
  5
AF1DD
330
1F
100
AcDbEntity
  8
HI Detail 3
100
AcDbLine
 10
99.78147610841492
 20
-92.53846058856936
 30
0.0
 11
99.8924337352774
 21
-92.53846058856936
 31
0.0
  0
LINE
  5
AF1E0
330
1F
100
AcDbEntity
  8
HI Detail 3
100
AcDbLine
 10
99.8924337352774
 20
-91.40662054236202
 30
0.0
 11
99.8924337352774
 21
-91.30964301318005
 31
0.0
  0
LINE
  5
AF1E1
330
1F
100
AcDbEntity
  8
HI Deatil 2
100
AcDbLine
 10
102.3602235766992
 20
-91.32400925974669
 30
0.0
 11
102.7644743998887
 21
-91.32400925974669
 31
0.0
  0
LINE
  5
AF1E2
330
1F
100
AcDbEntity
  8
HI Deatil 2
100
AcDbLine
 10
102.7644743998887
 20
-91.32400925974669
 30
0.0
 11
102.7644743998887
 21
-91.1592713783178
 31
0.0
  0
ARC
  5
AF1E3
330
1F
100
AcDbEntity
  8
HI Deatil 2
100
AcDbCircle
 10
102.7744489418522
 20
-91.1592713783178
 30
0.0
 40
0.0099745419634817
100
AcDbArc
 50
53.46722440953588
 51
180.0
  0
LINE
  5
AF1E4
330
1F
100
AcDbEntity
  8
HI Deatil 2
100
AcDbLine
 10
102.7803866124205
 20
-91.15125666961418
 30
0.0
 11
103.0135692505933
 21
-91.32400925974669
 31
0.0
  0
LINE
  5
AF1E5
330
1F
100
AcDbEntity
  8
HI Deatil 2
100
AcDbLine
 10
102.3602235766992
 20
-92.52409434200297
 30
0.0
 11
102.7644743998887
 21
-92.52409434200297
 31
0.0
  0
LINE
  5
AF1E6
330
1F
100
AcDbEntity
  8
HI Deatil 2
100
AcDbLine
 10
102.7644743998887
 20
-92.52409434200297
 30
0.0
 11
102.7644743998887
 21
-92.68883222343182
 31
0.0
  0
ARC
  5
AF1E7
330
1F
100
AcDbEntity
  8
HI Deatil 2
100
AcDbCircle
 10
102.7744489418522
 20
-92.68883222343182
 30
0.0
 40
0.0099745419634817
100
AcDbArc
 50
180.0
 51
306.5327755904643
  0
LINE
  5
AF1E8
330
1F
100
AcDbEntity
  8
HI Deatil 2
100
AcDbLine
 10
102.7803866124205
 20
-92.69684693213543
 30
0.0
 11
103.0094348207679
 21
-92.52715732073355
 31
0.0
  0
LINE
  5
AF1E9
330
1F
100
AcDbEntity
  8
HI Deatil 2
100
AcDbLine
 10
99.78147610841492
 20
-91.32400925974669
 30
0.0
 11
99.37722528522526
 21
-91.32400925974669
 31
0.0
  0
LINE
  5
AF1EA
330
1F
100
AcDbEntity
  8
HI Deatil 2
100
AcDbLine
 10
99.37722528522526
 20
-91.32400925974669
 30
0.0
 11
99.37722528522526
 21
-91.1592713783178
 31
0.0
  0
ARC
  5
AF1EB
330
1F
100
AcDbEntity
  8
HI Deatil 2
100
AcDbCircle
 10
99.36725074326183
 20
-91.1592713783178
 30
0.0
 40
0.0099745419634419
100
AcDbArc
 50
359.999999999886
 51
126.5327755903486
  0
LINE
  5
AF1EC
330
1F
100
AcDbEntity
  8
HI Deatil 2
100
AcDbLine
 10
99.36131307269358
 20
-91.15125666961418
 30
0.0
 11
99.12813043452064
 21
-91.32400925974669
 31
0.0
  0
LINE
  5
AF1ED
330
1F
100
AcDbEntity
  8
HI Deatil 2
100
AcDbLine
 10
99.78147610841492
 20
-92.52409434200297
 30
0.0
 11
99.37722528522526
 21
-92.52409434200297
 31
0.0
  0
LINE
  5
AF1EE
330
1F
100
AcDbEntity
  8
HI Deatil 2
100
AcDbLine
 10
99.37722528522526
 20
-92.52409434200297
 30
0.0
 11
99.37722528522526
 21
-92.68883222343182
 31
0.0
  0
ARC
  5
AF1EF
330
1F
100
AcDbEntity
  8
HI Deatil 2
100
AcDbCircle
 10
99.36725074326183
 20
-92.68883222343186
 30
0.0
 40
0.0099745419634419
100
AcDbArc
 50
233.4672244096514
 51
0.0000000001156195
  0
LINE
  5
AF1F0
330
1F
100
AcDbEntity
  8
HI Deatil 2
100
AcDbLine
 10
99.36131307269358
 20
-92.69684693213543
 30
0.0
 11
99.13226486434609
 21
-92.52715732073355
 31
0.0
  0
LINE
  5
AF1F1
330
1F
100
AcDbEntity
  8
HI Deatil 2
100
AcDbLine
 10
103.0135692505936
 20
-91.32400925974669
 30
0.0
 11
106.0370042151386
 21
-91.32400925974669
 31
0.0
  0
LINE
  5
AF1F2
330
1F
100
AcDbEntity
  8
HI Deatil 2
100
AcDbLine
 10
108.0067109114871
 20
-91.32400925974669
 30
0.0
 11
110.7555803144677
 21
-91.32400925974669
 31
0.0
  0
LINE
  5
AF1F3
330
1F
100
AcDbEntity
  8
HI Deatil 2
100
AcDbLine
 10
103.0094348207682
 20
-92.52715732073355
 30
0.0
 11
106.0370042151386
 21
-92.52715732073355
 31
0.0
  0
LINE
  5
AF1F4
330
1F
100
AcDbEntity
  8
HI Deatil 2
100
AcDbLine
 10
108.0067109114871
 20
-92.52715732073355
 30
0.0
 11
110.7489514195539
 21
-92.52715732073355
 31
0.0
  0
LINE
  5
AF1F5
330
1F
100
AcDbEntity
  8
HI Deatil 2
100
AcDbLine
 10
107.6402779360853
 20
-91.32400925974669
 30
0.0
 11
106.4034371905405
 21
-91.32400925974669
 31
0.0
  0
LWPOLYLINE
  5
AF1F6
102
{ACAD_REACTORS
330
AEBD9
102
}
330
1F
100
AcDbEntity
  8
HI Deatil 2
100
AcDbPolyline
 90
        2
 70
     0
 43
0.0
 10
107.6402779360853
 20
-91.32400925974669
 10
106.4034371905405
 20
-91.32400925974669
  0
LWPOLYLINE
  5
AF1F7
102
{ACAD_REACTORS
330
AEBD9
102
}
330
1F
100
AcDbEntity
  8
HI Deatil 2
100
AcDbPolyline
 90
        2
 70
     0
 43
0.0
 10
107.6402779360852
 20
-92.52715732073355
 10
106.4034371905405
 20
-92.52715732073355
  0
LWPOLYLINE
  5
AF1F8
102
{ACAD_REACTORS
330
AEBD9
102
}
330
1F
100
AcDbEntity
  8
HI Deatil 2
100
AcDbPolyline
 90
        2
 70
     0
 43
0.0
 10
108.0067109114871
 20
-91.32400925974669
 10
107.9099008120997
 20
-91.24461828510595
  0
LWPOLYLINE
  5
AF1F9
102
{ACAD_REACTORS
330
AEBD9
102
}
330
1F
100
AcDbEntity
  8
HI Deatil 2
100
AcDbPolyline
 90
        2
 70
     0
 43
0.0
 10
107.6402779360853
 20
-91.32400925974669
 10
107.739531988472
 20
-91.24393566730365
  0
ARC
  5
AF1FA
102
{ACAD_REACTORS
330
AEBD9
102
}
330
1F
100
AcDbEntity
  8
HI Deatil 2
100
AcDbCircle
 10
107.8242696629135
 20
-91.35577439149441
 30
0.0
 40
0.1403152653790171
100
AcDbArc
 50
52.39048091198451
 51
127.1503868481132
  0
LWPOLYLINE
  5
AF1FB
330
1F
100
AcDbEntity
  8
HI HATCH FILL
100
AcDbPolyline
 90
        2
 70
     0
 43
0.0
 10
107.8248318604284
 20
-91.52755581122454
 10
107.8248318604284
 20
-92.32487464075777
  0
LWPOLYLINE
  5
AF1FC
102
{ACAD_REACTORS
330
AEBD9
102
}
330
1F
100
AcDbEntity
  8
HI Deatil 2
100
AcDbPolyline
 90
        2
 70
     0
 43
0.0
 10
108.0067109114871
 20
-92.52715732073355
 10
107.9099008120996
 20
-92.60654829537429
  0
LWPOLYLINE
  5
AF1FD
102
{ACAD_REACTORS
330
AEBD9
102
}
330
1F
100
AcDbEntity
  8
HI Deatil 2
100
AcDbPolyline
 90
        2
 70
     0
 43
0.0
 10
107.6402779360852
 20
-92.52715732073355
 10
107.7395319884719
 20
-92.60723091317663
  0
ARC
  5
AF1FE
102
{ACAD_REACTORS
330
AEBD9
102
}
330
1F
100
AcDbEntity
  8
HI Deatil 2
100
AcDbCircle
 10
107.8242696629134
 20
-92.49539218898588
 30
0.0
 40
0.1403152653790171
100
AcDbArc
 50
232.8496131518868
 51
307.6095190880155
  0
LWPOLYLINE
  5
AF1FF
330
1F
100
AcDbEntity
  8
HI Deatil 2
100
AcDbPolyline
 90
        2
 70
     0
 43
0.0
 10
106.4034371905405
 20
-91.32400925974669
 10
106.306627091153
 20
-91.24461828510595
  0
LWPOLYLINE
  5
AF200
330
1F
100
AcDbEntity
  8
HI Deatil 2
100
AcDbPolyline
 90
        2
 70
     0
 43
0.0
 10
106.0370042151386
 20
-91.32400925974669
 10
106.1362582675254
 20
-91.24393566730365
  0
ARC
  5
AF201
330
1F
100
AcDbEntity
  8
HI Deatil 2
100
AcDbCircle
 10
106.2209959419669
 20
-91.35577439149441
 30
0.0
 40
0.1403152653790171
100
AcDbArc
 50
52.39048091198451
 51
127.1503868481132
  0
LWPOLYLINE
  5
AF202
330
1F
100
AcDbEntity
  8
HI HATCH FILL
100
AcDbPolyline
 90
        2
 70
     0
 43
0.0
 10
106.2215581394818
 20
-91.52755581122454
 10
106.2215581394818
 20
-92.32487464075777
  0
LWPOLYLINE
  5
AF203
330
1F
100
AcDbEntity
  8
HI Deatil 2
100
AcDbPolyline
 90
        2
 70
     0
 43
0.0
 10
106.4034371905405
 20
-92.52715732073355
 10
106.306627091153
 20
-92.60654829537429
  0
LWPOLYLINE
  5
AF204
330
1F
100
AcDbEntity
  8
HI Deatil 2
100
AcDbPolyline
 90
        2
 70
     0
 43
0.0
 10
106.0370042151386
 20
-92.52715732073355
 10
106.1362582675253
 20
-92.60723091317663
  0
ARC
  5
AF205
330
1F
100
AcDbEntity
  8
HI Deatil 2
100
AcDbCircle
 10
106.2209959419668
 20
-92.49539218898588
 30
0.0
 40
0.1403152653790171
100
AcDbArc
 50
232.8496131518868
 51
307.6095190880155
  0
CIRCLE
  5
AF206
330
1F
100
AcDbEntity
  8
HI HATCH FILL
100
AcDbCircle
 10
107.0231949999551
 20
-91.92621522599115
 30
0.0
 40
0.1335487093825943
  0
LWPOLYLINE
  5
AF22E
102
{ACAD_REACTORS
330
AF245
330
AF336
102
}
330
1F
100
AcDbEntity
  8
HI Deatil 1
100
AcDbPolyline
 90
        6
 70
     0
 43
0.0
 10
100.6672647634265
 20
-88.81154690047052
 10
100.5211467513327
 20
-88.81154690047052
 10
100.5211467513327
 20
-88.60734470965631
 10
101.6669479331237
 20
-88.60734470965631
 10
101.6669479331237
 20
-88.81154690047052
 10
101.5498720103902
 20
-88.81154690047052
  0
LWPOLYLINE
  5
AF22F
102
{ACAD_REACTORS
330
AF245
330
AF336
102
}
330
1F
100
AcDbEntity
  8
HI Deatil 2
100
AcDbPolyline
 90
        2
 70
     0
 43
0.0
 10
101.5498720103902
 20
-88.81154690047052
 10
100.6672647634265
 20
-88.81154690047052
  0
LINE
  5
AF230
102
{ACAD_REACTORS
330
AF245
330
AF336
102
}
330
1F
100
AcDbEntity
  8
HI Detail 3
100
AcDbLine
 10
100.7081052015893
 20
-89.53458471579562
 30
0.0
 11
100.7081052015893
 21
-89.20181290849324
 31
0.0
  0
LINE
  5
AF231
102
{ACAD_REACTORS
330
AF245
330
AF336
102
}
330
1F
100
AcDbEntity
  8
HI Detail 3
100
AcDbLine
 10
101.4436868711667
 20
-89.54502431962142
 30
0.0
 11
101.4436868711667
 21
-89.20181290849324
 31
0.0
  0
LWPOLYLINE
  5
AF232
102
{ACAD_REACTORS
330
AF245
330
AF336
102
}
330
1F
100
AcDbEntity
  8
HI Deatil 1
100
AcDbPolyline
 90
        2
 70
     0
 43
0.0
 10
100.5098021851764
 20
-89.5158044225109
 10
100.5098021851764
 20
-88.9889888474002
  0
LWPOLYLINE
  5
AF233
102
{ACAD_REACTORS
330
AF245
330
AF336
102
}
330
1F
100
AcDbEntity
  8
HI Deatil 1
100
AcDbPolyline
 90
        2
 70
     0
 43
0.0
 10
100.5098021851764
 20
-88.9889888474002
 10
100.6672647634265
 20
-88.9889888474002
  0
LWPOLYLINE
  5
AF234
102
{ACAD_REACTORS
330
AF245
330
AF336
102
}
330
1F
100
AcDbEntity
  8
HI Deatil 2
100
AcDbPolyline
 90
        2
 70
     0
 43
0.0
 10
100.6672647634265
 20
-88.9889888474002
 10
101.5498720103902
 20
-88.9889888474002
  0
LWPOLYLINE
  5
AF235
102
{ACAD_REACTORS
330
AF245
330
AF336
102
}
330
1F
100
AcDbEntity
  8
HI Deatil 1
100
AcDbPolyline
 90
        3
 70
     0
 43
0.0
 10
101.5498720103902
 20
-88.9889888474002
 10
101.644258800811
 20
-88.9889888474002
 10
101.644258800811
 20
-89.50320016627435
  0
LWPOLYLINE
  5
AF236
102
{ACAD_REACTORS
330
AF245
330
AF336
102
}
330
1F
100
AcDbEntity
  8
HI Detail 3
100
AcDbPolyline
 90
        2
 70
     0
 43
0.0
 10
101.0835612215232
 20
-89.48628284894603
 10
101.0835612215232
 20
-89.89913597157624
  0
LWPOLYLINE
  5
AF237
102
{ACAD_REACTORS
330
AF245
330
AF336
102
}
330
1F
100
AcDbEntity
  8
HI Detail 3
100
AcDbPolyline
 90
        2
 70
     0
 43
0.0
 10
101.4334776755795
 20
-89.54776072803889
 10
101.4334776755795
 20
-89.90915497491618
  0
LWPOLYLINE
  5
AF238
102
{ACAD_REACTORS
330
AF245
330
AF336
102
}
330
1F
100
AcDbEntity
  8
HI Detail 3
100
AcDbPolyline
 90
        2
 70
     0
 43
0.0
 10
100.6657902459579
 20
-89.54776072803889
 10
100.6657902459579
 20
-89.90915497491618
  0
ARC
  5
AF239
102
{ACAD_REACTORS
330
AF245
330
AF336
102
}
330
1F
100
AcDbEntity
  8
HI Deatil 1
100
AcDbCircle
 10
101.4334776755795
 20
-89.54776072803889
 30
0.0
 40
0.0
100
AcDbArc
 50
323.3276912176878
 51
0.0
  0
LWPOLYLINE
  5
AF23A
102
{ACAD_REACTORS
330
AF245
330
AF336
102
}
330
1F
100
AcDbEntity
  8
HI Deatil 1
100
AcDbPolyline
 90
        2
 70
     0
 43
0.0
 10
101.5498720103902
 20
-88.81154690047052
 10
101.5498720103902
 20
-88.9889888474002
  0
LWPOLYLINE
  5
AF23B
102
{ACAD_REACTORS
330
AF245
330
AF336
102
}
330
1F
100
AcDbEntity
  8
HI Deatil 1
100
AcDbPolyline
 90
        2
 70
     0
 43
0.0
 10
100.6672647634265
 20
-88.9889888474002
 10
100.6672647634265
 20
-88.81154690047052
  0
LWPOLYLINE
  5
AF23C
102
{ACAD_REACTORS
330
AF245
330
AF336
102
}
330
1F
100
AcDbEntity
  8
HI Deatil 2
100
AcDbPolyline
 90
        4
 70
     0
 43
0.0
 10
101.644258800811
 20
-89.50320016627435
 42
0.0281572725816523
 10
101.4334776755795
 20
-89.54776072803889
 42
0.1613929359343234
 10
100.6657902459579
 20
-89.54776072803889
 42
0.0017467344973088
 10
100.5098021851764
 20
-89.5158044225109
 42
0.0013057985449296
  0
LWPOLYLINE
  5
AF23D
102
{ACAD_REACTORS
330
AF245
330
AF336
102
}
330
1F
100
AcDbEntity
  8
HI Deatil 1
100
AcDbPolyline
 90
        4
 70
     0
 43
0.0
 10
100.5098021851764
 20
-89.5158044225109
 42
0.0017882250446615
 10
100.3498816291927
 20
-89.48421888243407
 10
100.3498816291927
 20
-89.90915497491618
 10
100.5469120984867
 20
-89.90915497491618
  0
LWPOLYLINE
  5
AF23E
102
{ACAD_REACTORS
330
AF245
330
AF336
102
}
330
1F
100
AcDbEntity
  8
HI Deatil 1
100
AcDbPolyline
 90
        2
 70
     0
 43
0.0
 10
100.5469120984867
 20
-89.90915497491618
 10
101.6048563051529
 20
-89.90915497491618
  0
LWPOLYLINE
  5
AF23F
102
{ACAD_REACTORS
330
AF245
330
AF336
102
}
330
1F
100
AcDbEntity
  8
HI Deatil 1
100
AcDbPolyline
 90
        4
 70
     0
 43
0.0
 10
101.6048563051529
 20
-89.90915497491618
 10
101.8113570354246
 20
-89.90915497491618
 10
101.8113570354246
 20
-89.48506188464092
 42
0.0219606544198922
 10
101.644258800811
 20
-89.50320016627435
  0
LWPOLYLINE
  5
AF240
102
{ACAD_REACTORS
330
AF245
330
AF336
102
}
330
1F
100
AcDbEntity
  8
HI Deatil 2
100
AcDbPolyline
 90
        2
 70
     0
 43
0.0
 10
100.5443869642513
 20
-90.21828603610183
 10
100.5469120984867
 20
-89.90915497491618
  0
LWPOLYLINE
  5
AF241
102
{ACAD_REACTORS
330
AF245
330
AF336
102
}
330
1F
100
AcDbEntity
  8
HI Deatil 2
100
AcDbPolyline
 90
        2
 70
     0
 43
0.0
 10
101.6048022184438
 20
-90.21828603610183
 10
101.6048563051529
 20
-89.90915497491618
  0
LWPOLYLINE
  5
AF242
102
{ACAD_REACTORS
330
AF245
330
AF336
102
}
330
1F
100
AcDbEntity
  8
HI Detail 3
100
AcDbPolyline
 90
        2
 70
     0
 43
0.0
 10
100.5462308878077
 20
-89.99254989989054
 10
101.6048417148017
 20
-89.9925457162595
  0
LWPOLYLINE
  5
AF243
102
{ACAD_REACTORS
330
AF245
330
AF336
102
}
330
1F
100
AcDbEntity
  8
HI Detail 3
100
AcDbPolyline
 90
        2
 70
     0
 43
0.0
 10
100.5462184348044
 20
-90.06372468914007
 10
101.6048292617984
 20
-90.06372050550899
  0
LWPOLYLINE
  5
AF244
102
{ACAD_REACTORS
330
AF245
330
AF336
102
}
330
1F
100
AcDbEntity
  8
HI Detail 3
100
AcDbPolyline
 90
        2
 70
     0
 43
0.0
 10
100.5462050064128
 20
-90.14047428272361
 10
101.6048158334068
 20
-90.14047009909257
  0
LINE
  5
AF248
330
1F
100
AcDbEntity
  8
HI Detail 3
100
AcDbLine
 10
101.6324252168981
 20
-92.79107475640811
 30
0.0
 11
100.5090616081399
 21
-92.79107475640811
 31
0.0
  0
LINE
  5
AF24D
330
1F
100
AcDbEntity
  8
HI Detail 3
100
AcDbLine
 10
100.3991820983061
 20
-92.57020368045505
 30
0.0
 11
100.399182098306
 21
-90.75601687600782
 31
0.0
  0
LINE
  5
AF24E
330
1F
100
AcDbEntity
  8
HI Detail 3
100
AcDbLine
 10
100.399182098306
 20
-90.75601687600782
 30
0.0
 11
101.7427647764346
 21
-90.75601687600782
 31
0.0
  0
LINE
  5
AF24F
330
1F
100
AcDbEntity
  8
HI Detail 3
100
AcDbLine
 10
101.7427647764346
 20
-90.75601687600782
 30
0.0
 11
101.7423047267319
 21
-92.57020368045505
 31
0.0
  0
LINE
  5
AF251
330
1F
100
AcDbEntity
  8
HI Detail 3
100
AcDbLine
 10
102.3602235766992
 20
-91.40662054236202
 30
0.0
 11
102.8368389628677
 21
-91.40662054236202
 31
0.0
  0
LINE
  5
AF252
330
1F
100
AcDbEntity
  8
HI Detail 3
100
AcDbLine
 10
102.3602235766992
 20
-92.44148305938763
 30
0.0
 11
102.8368389628677
 21
-92.44148305938763
 31
0.0
  0
LINE
  5
AF253
330
1F
100
AcDbEntity
  8
HI Detail 3
100
AcDbLine
 10
99.78147610841492
 20
-91.40662054236202
 30
0.0
 11
99.30486072224633
 21
-91.40662054236202
 31
0.0
  0
LINE
  5
AF254
330
1F
100
AcDbEntity
  8
HI Detail 3
100
AcDbLine
 10
99.78147610841492
 20
-92.44148305938763
 30
0.0
 11
99.30486072224633
 21
-92.44148305938763
 31
0.0
  0
LWPOLYLINE
  5
AF255
330
1F
100
AcDbEntity
  8
HI Detail 3
100
AcDbPolyline
 90
        2
 70
     0
 43
0.0
 10
100.3991820983061
 20
-92.57020368045505
 10
100.5090616081399
 20
-92.79107475640811
  0
LWPOLYLINE
  5
AF256
330
1F
100
AcDbEntity
  8
HI Detail 3
100
AcDbPolyline
 90
        2
 70
     0
 43
0.0
 10
101.7423047267319
 20
-92.57020368045505
 10
101.6324252168981
 20
-92.79107475640811
  0
LWPOLYLINE
  5
AF257
330
1F
100
AcDbEntity
  8
HI Detail 3
100
AcDbPolyline
 90
        2
 70
     0
 43
0.0
 10
101.7423047267319
 20
-92.57020368045505
 10
100.3991820983061
 20
-92.57020368045507
  0
LWPOLYLINE
  5
AF260
330
1F
100
AcDbEntity
  8
HI Deatil 2
100
AcDbPolyline
 90
        2
 70
     1
 43
0.0
 10
91.38590651057041
 20
-91.93106570504317
 42
-0.6289697327392579
 10
91.38590651057029
 20
-91.32400925974669
 42
-0.6216060640662171
  0
ARC
  5
AF261
330
1F
100
AcDbEntity
  8
HI Deatil 2
100
AcDbCircle
 10
91.5207003432223
 20
-92.22764938356991
 30
0.0
 40
0.3257779238829095
100
AcDbArc
 50
114.4412440753297
 51
246.8330299996159
  0
LINE
  5
AF310
330
1F
100
AcDbEntity
  8
Hunter Product Medium
100
AcDbLine
 10
95.49537926504074
 20
-91.32400925974671
 30
0.0
 11
96.10639905419485
 21
-82.78106271071449
 31
0.0
  0
LINE
  5
AF311
330
1F
100
AcDbEntity
  8
Hunter Product Medium
100
AcDbLine
 10
95.32909809424561
 20
-91.32400925974669
 30
0.0
 11
95.94008832096005
 21
-82.78106271071449
 31
0.0
  0
LINE
  5
AF312
330
1F
100
AcDbEntity
  8
Hunter Product Medium
100
AcDbLine
 10
106.8123772257897
 20
-91.32400925974669
 30
0.0
 11
106.2013574366353
 21
-82.78106271071449
 31
0.0
  0
LINE
  5
AF313
330
1F
100
AcDbEntity
  8
Hunter Product Medium
100
AcDbLine
 10
106.6461075599971
 20
-91.32400925974671
 30
0.0
 11
106.0350877708427
 21
-82.78106271071449
 31
0.0
  0
LWPOLYLINE
  5
AF32C
102
{ACAD_REACTORS
330
AF336
102
}
330
1F
100
AcDbEntity
  8
HI Deatil 2
100
AcDbPolyline
 90
        4
 70
     1
 43
0.0
 10
100.3544784293808
 20
-90.21828603610183
 10
101.7965424104387
 20
-90.21828603610183
 10
101.7965424104387
 20
-90.42408328719135
 10
100.3544784293808
 20
-90.42408328719135
  0
LINE
  5
AF32D
102
{ACAD_REACTORS
330
AF336
102
}
330
1F
100
AcDbEntity
  8
HI Detail 3
100
AcDbLine
 10
100.7952488811466
 20
-90.21828603610183
 30
0.0
 11
100.7950621890092
 21
-90.42408328719135
 31
0.0
  0
LWPOLYLINE
  5
AF330
102
{ACAD_REACTORS
330
AF336
102
}
330
1F
100
AcDbEntity
  8
HI Deatil 2
100
AcDbPolyline
 90
        2
 70
     0
 43
0.0
 10
100.4951924206655
 20
-90.42408328719135
 10
100.4951924206655
 20
-90.75602414060567
  0
LWPOLYLINE
  5
AF331
102
{ACAD_REACTORS
330
AF336
102
}
330
1F
100
AcDbEntity
  8
HI Detail 3
100
AcDbPolyline
 90
        2
 70
     0
 43
0.0
 10
100.4951924206655
 20
-90.49722814901635
 10
101.6467524627648
 20
-90.4972136198458
  0
LWPOLYLINE
  5
AF332
102
{ACAD_REACTORS
330
AF336
102
}
330
1F
100
AcDbEntity
  8
HI Detail 3
100
AcDbPolyline
 90
        2
 70
     0
 43
0.0
 10
100.4951924206655
 20
-90.60178440264584
 10
101.6467524627648
 20
-90.60176987347537
  0
LWPOLYLINE
  5
AF333
102
{ACAD_REACTORS
330
AF336
102
}
330
1F
100
AcDbEntity
  8
HI Detail 3
100
AcDbPolyline
 90
        2
 70
     0
 43
0.0
 10
100.4951924206655
 20
-90.67711002030561
 10
101.6467524627648
 20
-90.67709549113502
  0
LWPOLYLINE
  5
AF334
102
{ACAD_REACTORS
330
AF336
102
}
330
1F
100
AcDbEntity
  8
HI Deatil 2
100
AcDbPolyline
 90
        2
 70
     0
 43
0.0
 10
101.6467524627648
 20
-90.42408328719135
 10
101.6467524627648
 20
-90.75602414060567
  0
LINE
  5
AF335
102
{ACAD_REACTORS
330
AF336
102
}
330
1F
100
AcDbEntity
  8
HI Detail 3
100
AcDbLine
 10
101.3072242371105
 20
-90.21828603610183
 30
0.0
 11
101.3070375449732
 21
-90.42408328719135
 31
0.0
  0
MTEXT
  5
AF337
330
1F
100
AcDbEntity
  8
HI Text
100
AcDbMText
 10
113.5357895251769
 20
-81.66835625123393
 30
0.0
 40
0.5
 41
0.5059889325313582
 46
0.0
 71
     6
 72
     1
  1
{\fArial|b0|i0|c0|p34;5}
  7
Hunter
 73
     1
 44
1.0
  0
CIRCLE
  5
AF338
330
1F
100
AcDbEntity
  8
HI Text
100
AcDbCircle
 10
113.4528111773954
 20
-81.69870975288821
 30
0.0
 40
0.511352622321557
  0
LEADER
  5
AF339
330
1F
100
AcDbEntity
  8
HI Text
100
AcDbLeader
  3
LandMatters
 76
     3
 10
104.5252867328661
 20
-91.32400925974669
 30
0.0
 10
112.3195386529661
 20
-81.69870975288818
 30
0.0
 10
112.9414585550739
 20
-81.69870975288821
 30
0.0
211
-0.0000000000000002
221
-1.0
231
0.0
1001
ACAD
1000
DSTYLE
1002
{
1070
    41
1040
0.5
1002
}
  0
CIRCLE
  5
AF33A
330
1F
100
AcDbEntity
  8
HI Text
100
AcDbCircle
 10
116.2145099951943
 20
-86.70201275942927
 30
0.0
 40
0.511352622321557
  0
MTEXT
  5
AF33B
330
1F
100
AcDbEntity
  8
HI Text
100
AcDbMText
 10
116.2852059312766
 20
-86.67165925777499
 30
0.0
 40
0.5
 41
0.2318212824010929
 46
0.0
 71
     6
 72
     1
  1
{\fArial|b0|i0|c0|p34;5}
  7
Hunter
 73
     1
 44
1.0
  0
MTEXT
  5
AF33C
330
1F
100
AcDbEntity
  8
HI Text
100
AcDbMText
 10
116.8353319039054
 20
-86.67037005384926
 30
0.0
 40
0.5
 41
14.36766712141882
 46
0.0
 71
     4
 72
     1
  1
\A1;{\fArial|b0|i0|c0|p34;PROFESSIONAL LANDSCAPE DRIPLINE}
  7
Hunter
 73
     1
 44
1.0
  0
LWPOLYLINE
  5
AF347
330
1F
100
AcDbEntity
  8
HI Deatil 2
100
AcDbPolyline
 90
        2
 70
     1
 43
0.0
 10
110.7555803144675
 20
-91.93106570504317
 42
0.6289697327392579
 10
110.7555803144677
 20
-91.32400925974669
 42
0.6216060640662171
  0
ARC
  5
AF348
330
1F
100
AcDbEntity
  8
HI Deatil 2
100
AcDbCircle
 10
110.6207864818157
 20
-92.22764938356991
 30
0.0
 40
0.3257779238829095
100
AcDbArc
 50
293.1669700003818
 51
65.55875592467033
  0
LWPOLYLINE
  5
AF396
330
1F
100
AcDbEntity
  8
HI Deatil 2
100
AcDbPolyline
 90
       11
 70
     0
 43
0.0
 10
95.28008910789536
 20
-94.3340792078451
 10
96.32317635963946
 20
-94.3340792078451
 10
98.26253555521001
 20
-94.19486153840253
 10
99.4631635034514
 20
-94.45006087417263
 10
100.0013760136226
 20
-94.33407352509611
 10
101.0640008559304
 20
-94.56041734369486
 10
102.0438236521058
 20
-94.25693705250877
 10
103.7179629875566
 20
-94.5000222032557
 10
105.0251240290957
 20
-94.2304031545628
 10
105.8182836234284
 20
-94.33406526807285
 10
106.8613967201241
 20
-94.33406526807285
  0
LWPOLYLINE
  5
AF397
330
1F
100
AcDbEntity
  8
HI Detail 3
100
AcDbPolyline
 90
        4
 70
     1
 43
0.0
 10
105.8182836234284
 20
-94.33406526807285
 10
110.3318981057295
 20
-94.33406526807285
 10
110.3318981057295
 20
-95.96411005628853
 10
105.8182836234284
 20
-95.96411005628853
  0
LWPOLYLINE
  5
AF398
330
1F
100
AcDbEntity
  8
HI Detail 3
100
AcDbPolyline
 90
        4
 70
     1
 43
0.0
 10
96.32317635963946
 20
-94.33406526807285
 10
91.80956187733844
 20
-94.33406526807285
 10
91.80956187733844
 20
-95.96411005628853
 10
96.32317635963946
 20
-95.96411005628853
  0
MTEXT
  5
AF3AB
330
1F
100
AcDbEntity
  8
HI Text
100
AcDbMText
 10
113.5357895251769
 20
-82.69106149587704
 30
0.0
 40
0.5
 41
0.5059889325313582
 46
0.0
 71
     6
 72
     1
  1
{\fArial|b0|i0|c0|p34;6}
  7
Hunter
 73
     1
 44
1.0
  0
CIRCLE
  5
AF3AC
330
1F
100
AcDbEntity
  8
HI Text
100
AcDbCircle
 10
113.4528111773954
 20
-82.7214149975313
 30
0.0
 40
0.511352622321557
  0
LEADER
  5
AF3AD
330
1F
100
AcDbEntity
  8
HI Text
100
AcDbLeader
  3
LandMatters
 76
     3
 10
104.2076909130662
 20
-94.39900941814487
 30
0.0
 10
112.3195386529661
 20
-82.72141499753129
 30
0.0
 10
112.9414585550739
 20
-82.7214149975313
 30
0.0
211
-0.0000000000000002
221
-1.0
231
0.0
1001
ACAD
1000
DSTYLE
1002
{
1070
    41
1040
0.5
1002
}
  0
MTEXT
  5
AF3AE
330
1F
100
AcDbEntity
  8
HI Text
100
AcDbMText
 10
113.5357895251769
 20
-83.71376674052013
 30
0.0
 40
0.5
 41
0.5059889325313582
 46
0.0
 71
     6
 72
     1
  1
{\fArial|b0|i0|c0|p34;7}
  7
Hunter
 73
     1
 44
1.0
  0
CIRCLE
  5
AF3AF
330
1F
100
AcDbEntity
  8
HI Text
100
AcDbCircle
 10
113.4528111773954
 20
-83.74412024217441
 30
0.0
 40
0.511352622321557
  0
LEADER
  5
AF3B0
330
1F
100
AcDbEntity
  8
HI Text
100
AcDbLeader
  3
LandMatters
 76
     3
 10
108.8545321891951
 20
-94.33406526807285
 30
0.0
 10
112.3195386529661
 20
-83.7441202421744
 30
0.0
 10
112.9414585550739
 20
-83.74412024217441
 30
0.0
211
-0.0000000000000002
221
-1.0
231
0.0
1001
ACAD
1000
DSTYLE
1002
{
1070
    41
1040
0.5
1002
}
  0
CIRCLE
  5
AF3B1
330
1F
100
AcDbEntity
  8
HI Text
100
AcDbCircle
 10
116.2145099951943
 20
-88.54912660026661
 30
0.0
 40
0.511352622321557
  0
MTEXT
  5
AF3B2
330
1F
100
AcDbEntity
  8
HI Text
100
AcDbMText
 10
116.2852059312766
 20
-88.51877309861235
 30
0.0
 40
0.5
 41
0.2318212824010938
 46
0.0
 71
     6
 72
     1
  1
{\fArial|b0|i0|c0|p34;6}
  7
Hunter
 73
     1
 44
1.0
  0
MTEXT
  5
AF3B3
330
1F
100
AcDbEntity
  8
HI Text
100
AcDbMText
 10
116.8353319039054
 20
-88.51748389468662
 30
0.0
 40
0.5
 41
14.36766712141882
 46
0.0
 71
     4
 72
     1
  1
\A1;{\fArial|b0|i0|c0|p34;FILTER FABRIC}
  7
Hunter
 73
     1
 44
1.0
  0
CIRCLE
  5
AF3B4
330
1F
100
AcDbEntity
  8
HI Text
100
AcDbCircle
 10
116.2145099951943
 20
-90.32739274116556
 30
0.0
 40
0.511352622321557
  0
MTEXT
  5
AF3B5
330
1F
100
AcDbEntity
  8
HI Text
100
AcDbMText
 10
116.2852059312766
 20
-90.2970392395113
 30
0.0
 40
0.5
 41
0.2318212824010938
 46
0.0
 71
     6
 72
     1
  1
{\fArial|b0|i0|c0|p34;7}
  7
Hunter
 73
     1
 44
1.0
  0
MTEXT
  5
AF3B6
330
1F
100
AcDbEntity
  8
HI Text
100
AcDbMText
 10
116.8353319039054
 20
-90.29575003558557
 30
0.0
 40
0.5
 41
14.36766712141882
 46
0.0
 71
     4
 72
     1
  1
\A1;{\fArial|b0|i0|c0|p34;BRICK}
  7
Hunter
 73
     1
 44
1.0
  0
VIEWPORT
  5
A21C6
102
{ACAD_XDICTIONARY
360
A21C7
102
}
330
A21B8
100
AcDbEntity
 67
     1
  8
0
100
AcDbViewport
 10
5.379608251091793
 20
3.879980799414523
 30
0.0
 40
21.92908682225825
 41
10.60034404030225
 68
     1
 69
     1
 12
5.379608251091793
 22
3.879980799414523
 13
0.0
 23
0.0
 14
0.5
 24
0.5
 15
0.5
 25
0.5
 16
0.0
 26
0.0
 36
1.0
 17
0.0
 27
0.0
 37
0.0
 42
50.0
 43
0.0
 44
0.0
 45
10.60034404030225
 50
0.0
 51
0.0
 72
  1000
 90
   819232
  1

281
     0
 71
     1
 74
     0
110
0.0
120
0.0
130
0.0
111
1.0
121
0.0
131
0.0
112
0.0
122
1.0
132
0.0
 79
     0
146
0.0
170
     0
 61
     5
348
9F
292
     1
282
     1
141
0.0
142
0.0
 63
   250
421
  3355443
  0
VIEWPORT
  5
A21CA
102
{ACAD_XDICTIONARY
360
A21CB
102
}
330
A21B8
100
AcDbEntity
 67
     1
  8
HI No Print
100
AcDbViewport
 10
5.14477344054908
 20
3.904943799045813
 30
0.0
 40
10.25899498546174
 41
7.782805874275823
 68
     2
 69
     2
 12
108.9543711106511
 22
-90.0873167872942
 13
0.0
 23
0.0
 14
0.5
 24
0.5
 15
0.5
 25
0.5
 16
0.0
 26
0.0
 36
1.0
 17
0.0
 27
0.0
 37
0.0
 42
50.0
 43
0.0
 44
0.0
 45
31.87049269852887
 50
0.0
 51
0.0
 72
  1000
 90
   557664
  1

281
     0
 71
     1
 74
     0
110
0.0
120
0.0
130
0.0
111
1.0
121
0.0
131
0.0
112
0.0
122
1.0
132
0.0
 79
     0
146
0.0
170
     0
 61
     5
348
9F
292
     1
282
     1
141
0.0
142
0.0
 63
   250
421
  3355443
  0
ENDSEC
  0
SECTION
  2
OBJECTS
  0
DICTIONARY
  5
C
330
0
100
AcDbDictionary
281
     1
  3
ACAD_CIP_PREVIOUS_PRODUCT_INFO
350
5C44A
  3
ACAD_COLOR
350
73
  3
ACAD_DETAILVIEWSTYLE
350
5C43F
  3
ACAD_GROUP
350
D
  3
ACAD_IMAGE_DICT
350
620BA
  3
ACAD_IMAGE_VARS
350
9DA
  3
ACAD_LAYOUT
350
1A
  3
ACAD_MATERIAL
350
72
  3
ACAD_MLEADERSTYLE
350
A33
  3
ACAD_MLINESTYLE
350
17
  3
ACAD_PLOTSETTINGS
350
19
  3
ACAD_PLOTSTYLENAME
350
E
  3
ACAD_RENDER_ACTIVE_RAPIDRT_SETTINGS
350
A0A35
  3
ACAD_RENDER_ACTIVE_SETTINGS
350
A15E5
  3
ACAD_SCALELIST
350
A11
  3
ACAD_SECTIONVIEWSTYLE
350
5C43D
  3
ACAD_TABLESTYLE
350
86
  3
ACAD_VISUALSTYLE
350
99
  3
ACAD_WIPEOUT_VARS
350
14083
  3
AcadDim
350
45186
  3
AcadDim_CRX
350
95AB0
  3
AcAec
350
5C6BE
  3
ACDB_RECOMPOSE_DATA
350
AF410
  3
AcDbVariableDictionary
350
66
  3
AEC_CLASSIFICATION_SYSTEM_DEFS
350
F6
  3
AEC_CLEANUP_GROUP_DEFS
350
5C691
  3
AEC_DISP_REP_CONFIGURATIONS
350
5C68F
  3
AEC_DISP_REP_SETS
350
5C686
  3
AEC_DISP_REPS
350
5C560
  3
AEC_DISPLAY_PROPS_DEFAULTS
350
5C562
  3
AEC_LAYERKEY_STYLES
350
5C693
  3
AEC_PROPERTY_SET_DEFS
350
F7
  3
AEC_VARS
350
5C565
  0
DICTIONARY
  5
B51
330
8
100
AcDbDictionary
280
     1
281
     1
  0
DICTIONARY
  5
E7
330
2
100
AcDbDictionary
280
     1
281
     1
  3
ACAD_LAYERFILTERS
360
1DD06
  3
ACAD_LAYERSTATES
360
E8
  3
ACLYDICTIONARY
360
1DD05
  0
DICTIONARY
  5
A6C
330
10
100
AcDbDictionary
280
     1
281
     1
  3
ADSK_XREC_LAYER_RECONCILED
360
A6D
  0
DICTIONARY
  5
9EC2C
330
9EC2B
100
AcDbDictionary
280
     1
281
     1
  0
DICTIONARY
  5
AE1AF
330
AE1AE
100
AcDbDictionary
280
     1
281
     1
  0
DICTIONARY
  5
AE754
330
AE753
100
AcDbDictionary
280
     1
281
     1
  0
DICTIONARY
  5
AE756
330
AE755
100
AcDbDictionary
280
     1
281
     1
  0
DICTIONARY
  5
AE758
330
AE757
100
AcDbDictionary
280
     1
281
     1
  0
DICTIONARY
  5
AF33E
330
AF33D
100
AcDbDictionary
280
     1
281
     1
  0
DICTIONARY
  5
A62
330
1F
100
AcDbDictionary
280
     1
281
     1
  3
ACAD_SORTENTS
360
A63
  0
DICTIONARY
  5
AF387
330
AF37A
100
AcDbDictionary
280
     1
281
     1
  3
ACAD_SORTENTS
360
AF388
  0
DICTIONARY
  5
A21AF
330
A21AE
100
AcDbDictionary
280
     1
281
     1
  3
ASDK_XREC_ANNOTATION_SCALE_INFO
360
A21B0
  0
DICTIONARY
  5
A21B3
330
A21B2
100
AcDbDictionary
280
     1
281
     1
  3
ASDK_XREC_ANNOTATION_SCALE_INFO
360
A21B4
  0
DICTIONARY
  5
AEC18
330
AEC17
100
AcDbDictionary
280
     1
281
     1
  3
ACAD_MTEXT_2008_RT
360
AF40F
  0
DICTIONARY
  5
AEC1C
330
AEC1B
100
AcDbDictionary
280
     1
281
     1
  0
DICTIONARY
  5
A21C7
330
A21C6
100
AcDbDictionary
280
     1
281
     1
  3
ASDK_XREC_ANNOTATION_SCALE_INFO
360
A21C8
  0
DICTIONARY
  5
A21CB
330
A21CA
100
AcDbDictionary
280
     1
281
     1
  3
ASDK_XREC_ANNOTATION_SCALE_INFO
360
A21CC
  0
XRECORD
  5
5C44A
102
{ACAD_REACTORS
330
C
102
}
330
C
100
AcDbXrecord
280
     1
300
ACD
300
2015
300
ACD_F_S
  0
DICTIONARY
  5
73
102
{ACAD_REACTORS
330
C
102
}
330
C
100
AcDbDictionary
281
     1
  0
DICTIONARY
  5
5C43F
102
{ACAD_REACTORS
330
C
102
}
330
C
100
AcDbDictionary
281
     1
  3
Imperial24
350
5C440
  0
DICTIONARY
  5
D
102
{ACAD_REACTORS
330
C
102
}
330
C
100
AcDbDictionary
281
     1
  3
*A1
350
AF245
  3
*A2
350
AF336
  0
DICTIONARY
  5
620BA
102
{ACAD_REACTORS
330
C
102
}
330
C
100
AcDbDictionary
281
     1
  0
RASTERVARIABLES
  5
9DA
102
{ACAD_REACTORS
330
C
102
}
330
C
100
AcDbRasterVariables
 90
        0
 70
     1
 71
     1
 72
     5
  0
DICTIONARY
  5
1A
102
{ACAD_REACTORS
330
C
102
}
330
C
100
AcDbDictionary
281
     1
  3
8.5 X 11
350
A21A1
  3
A4
350
A21B9
  3
Model
350
22
  0
DICTIONARY
  5
72
102
{ACAD_REACTORS
330
C
102
}
330
C
100
AcDbDictionary
281
     1
  3
ByBlock
350
97
  3
ByLayer
350
96
  3
Global
350
98
  0
DICTIONARY
  5
A33
102
{ACAD_REACTORS
330
C
102
}
330
C
100
AcDbDictionary
281
     1
  3
Standard
350
A34
  0
DICTIONARY
  5
17
102
{ACAD_REACTORS
330
C
102
}
330
C
100
AcDbDictionary
281
     1
  3
Standard
350
18
  0
DICTIONARY
  5
19
102
{ACAD_REACTORS
330
C
102
}
330
C
100
AcDbDictionary
281
     1
  3
500 - 24x36
350
E0
  3
500 - 30x42 Landscape
350
DE
  3
500 - 30x42 Portrait
350
DF
  3
6200 8.5x11
350
1052
  3
9800 - 11x17 Reduced
350
E1
  3
K550 - 8x11 Reduced
350
E2
  0
ACDBDICTIONARYWDFLT
  5
E
102
{ACAD_REACTORS
330
C
102
}
330
C
100
AcDbDictionary
281
     1
  3
Normal
350
F
100
AcDbDictionaryWithDefault
340
F
  0
ACAD_PROXY_OBJECT
  5
A0A35
102
{ACAD_REACTORS
330
C
102
}
330
C
100
AcDbProxyObject
 90
      499
 91
      769
 95
  3276827
 70
     0
162
               534
311
419340194019001A401D401B4024690401C001C001B001A4019401CC008000D4008001C8019401B80190019401C801A401B8019C008001B0019401D8019401B001CC00
161
               201
310
40AE40E4150140502000000000000021000000000000000840CC
 94
        0
  0
MENTALRAYRENDERSETTINGS
  5
A15E5
102
{ACAD_XDICTIONARY
360
A15E6
102
}
102
{ACAD_REACTORS
330
C
102
}
330
C
100
AcDbRenderSettings
 90
        2
  1
Medium
290
     1
290
     1
290
     1
290
     1
  1

  1

 90
        0
100
AcDbMentalRayRenderSettings
 90
        2
 90
        0
 90
        1
 70
     2
 40
3.0
 40
3.0
 40
0.0500000007450581
 40
0.0500000007450581
 40
0.0500000007450581
 40
0.0500000007450581
 70
     0
290
     0
290
     1
 90
        5
 90
        5
 90
        5
290
     0
 90
      500
290
     0
 40
1.0
 90
    10000
 90
        5
 90
        5
 90
        5
290
     0
 90
      200
290
     0
290
     0
290
     0
 40
1.0
 40
1.0
 40
1500.0
 70
     0
 70
     0
 40
10.0
 70
     0
 70
     0
290
     0
  1

 90
       32
 70
     0
 90
     1048
290
     0
 40
1.0
  0
DICTIONARY
  5
A11
102
{ACAD_REACTORS
330
C
102
}
330
C
100
AcDbDictionary
281
     1
  3
*A1
350
4D48B
  3
*A2
350
4D48C
  3
*A3
350
5C55A
  3
*A4
350
5C55B
  3
A0
350
A12
  3
A1
350
1DC91
  3
A2
350
1DC92
  3
A3
350
1DC93
  3
A4
350
1DC94
  3
A5
350
1DC95
  3
A6
350
1DC96
  3
A7
350
1DC97
  3
A8
350
1DC98
  3
A9
350
1DC99
  3
B0
350
1DC9A
  3
B1
350
1DC9B
  3
B2
350
1DC9C
  3
B3
350
1DC9D
  3
B4
350
1DC9E
  3
B5
350
1DC9F
  3
B6
350
1DCA0
  3
B7
350
1DCA1
  3
B8
350
1DCA2
  3
B9
350
1DCA3
  3
C0
350
1DCA4
  3
C1
350
1DCA5
  3
C2
350
1DCA6
  3
C3
350
1DCA7
  3
C4
350
1DCA8
  3
C5
350
1DCA9
  3
C6
350
1DCAA
  3
C7
350
1DCAB
  3
C8
350
1DCAC
  3
C9
350
1DCAD
  3
D0
350
1DCAE
  3
D1
350
1DCAF
  3
D2
350
1DCB0
  0
DICTIONARY
  5
5C43D
102
{ACAD_REACTORS
330
C
102
}
330
C
100
AcDbDictionary
281
     1
  3
Imperial24
350
5C43E
  0
DICTIONARY
  5
86
102
{ACAD_REACTORS
330
C
102
}
330
C
100
AcDbDictionary
281
     1
  3
Standard
350
87
  0
DICTIONARY
  5
99
102
{ACAD_REACTORS
330
C
102
}
330
C
100
AcDbDictionary
281
     1
  3
2dWireframe
350
9F
  3
3D Hidden
350
A1
  3
3dWireframe
350
A0
  3
Basic
350
9E
  3
Brighten
350
A5
  3
ColorChange
350
A9
  3
Conceptual
350
A2
  3
Dim
350
A4
  3
EdgeColorOff
350
5C43C
  3
Facepattern
350
A8
  3
Flat
350
9A
  3
FlatWithEdges
350
9B
  3
Gouraud
350
9C
  3
GouraudWithEdges
350
9D
  3
Hidden
350
5C434
  3
JitterOff
350
5C43A
  3
Linepattern
350
A7
  3
OverhangOff
350
5C43B
  3
Realistic
350
A3
  3
Shaded
350
5C439
  3
Shaded with edges
350
5C438
  3
Shades of Gray
350
5C435
  3
Sketchy
350
5C436
  3
Thicken
350
A6
  3
Wireframe
350
5C433
  3
X-Ray
350
5C437
  0
WIPEOUTVARIABLES
  5
14083
102
{ACAD_REACTORS
330
C
102
}
330
C
100
AcDbWipeoutVariables
 70
     1
  0
XRECORD
  5
45186
102
{ACAD_REACTORS
330
C
102
}
330
C
100
AcDbXrecord
280
     1
 90
   990106
  3

 60
     0
 61
     0
 62
     1
 63
     3
 64
     0
 65
     0
 66
     0
 67
     3
 68
     1
 69
     0
 70
     0
 71
     0
 72
     0
 40
0.0
170
     0
  0
XRECORD
  5
95AB0
102
{ACAD_REACTORS
330
C
102
}
330
C
100
AcDbXrecord
280
     1
 90
   990106
  3

 60
     0
 61
     0
 62
     1
 63
     3
 64
     0
 65
     0
 66
     0
 67
     3
 68
     1
 69
     0
 70
     0
 71
     0
 72
     0
 40
0.0
170
     0
  0
DICTIONARY
  5
5C6BE
102
{ACAD_REACTORS
330
C
102
}
330
C
100
AcDbDictionary
281
     1
  3
AcAecLayerManager
350
5C6BF
  0
XRECORD
  5
AF410
102
{ACAD_REACTORS
330
C
102
}
330
C
100
AcDbXrecord
280
     1
 90
        1
330
87
330
5C43E
330
5C440
330
AEC17
  0
DICTIONARY
  5
66
102
{ACAD_REACTORS
330
C
102
}
330
C
100
AcDbDictionary
281
     1
  3
CANNOSCALE
350
B5D
  3
CMLEADERSTYLE
350
B5C
  3
CTABLESTYLE
350
89
  3
CVIEWDETAILSTYLE
350
66F55
  3
CVIEWSECTIONSTYLE
350
66F56
  3
DIMASSOC
350
67
  3
HIDETEXT
350
6B
  3
HPCOLOR
350
9D9A7
  3
HPTRANSPARENCY
350
9D9A6
  3
LAYEREVAL
350
25751
  3
LAYERNOTIFY
350
25752
  3
LIGHTINGUNITS
350
F79
  3
MSLTSCALE
350
F78
  0
DICTIONARY
  5
F6
102
{ACAD_REACTORS
330
C
102
}
330
C
100
AcDbDictionary
281
     1
  0
DICTIONARY
  5
5C691
102
{ACAD_REACTORS
330
C
102
}
330
C
100
AcDbDictionary
281
     1
  3
Standard
350
5C692
  0
DICTIONARY
  5
5C68F
102
{ACAD_REACTORS
330
C
102
}
330
C
100
AcDbDictionary
281
     1
  3
Medium Detail
350
5C6A8
  3
Standard
350
5C690
  0
DICTIONARY
  5
5C686
102
{ACAD_REACTORS
330
C
102
}
330
C
100
AcDbDictionary
281
     1
  3
Elevation
350
5C68A
  3
Model
350
5C687
  3
Model High Detail
350
5C68E
  3
Model Low Detail
350
5C68D
  3
Plan
350
5C688
  3
Plan Diagnostic
350
5C6AB
  3
Plan High Detail
350
5C68C
  3
Plan Low Detail
350
5C68B
  3
Reflected
350
5C689
  3
Section_Elev
350
5C6AE
  0
DICTIONARY
  5
5C560
102
{ACAD_REACTORS
330
C
102
}
330
C
100
AcDbDictionary
281
     1
  3
AecDbDispRep2dSection
350
5C564
  3
AecDbDispRepAnchor
350
5C568
  3
AecDbDispRepAnchorBubToGrid
350
5C604
  3
AecDbDispRepAnchorBubToGridMdl
350
5C621
  3
AecDbDispRepAnchorBubToGridRcp
350
5C608
  3
AecDbDispRepAnchorEntToNode
350
5C569
  3
AecDbDispRepAnchorExtendedTagToEnt
350
5C56B
  3
AecDbDispRepAnchorTagToEnt
350
5C561
  3
AecDbDispRepBdgElevLineModel
350
5C61D
  3
AecDbDispRepBdgElevLinePlan
350
5C5B4
  3
AecDbDispRepBdgElevLinePlan100
350
5C5B8
  3
AecDbDispRepBdgElevLinePlan50
350
5C5F6
  3
AecDbDispRepBdgElevLineRcp
350
5C60E
  3
AecDbDispRepBdgSectionLineModel
350
5C615
  3
AecDbDispRepBdgSectionLinePlan
350
5C5C6
  3
AecDbDispRepBdgSectionLinePlan100
350
5C5BA
  3
AecDbDispRepBdgSectionLinePlan50
350
5C5E9
  3
AecDbDispRepBdgSectionLineRcp
350
5C61B
  3
AecDbDispRepBdgSectionModel
350
5C610
  3
AecDbDispRepBdgSectionSubDiv
350
5C611
  3
AecDbDispRepCeilingGrid
350
5C5BE
  3
AecDbDispRepCeilingGridModel
350
5C613
  3
AecDbDispRepCeilingGridPlan100
350
5C5B6
  3
AecDbDispRepCeilingGridPlan50
350
5C5F0
  3
AecDbDispRepCeilingGridRcp
350
5C606
  3
AecDbDispRepClipVolModel
350
5C56D
  3
AecDbDispRepClipVolPlan
350
5C573
  3
AecDbDispRepClipVolResSubDiv
350
5C579
  3
AecDbDispRepClipVolResult
350
5C580
  3
AecDbDispRepColumnGrid
350
5C5C8
  3
AecDbDispRepColumnGridModel
350
5C617
  3
AecDbDispRepColumnGridPlan100
350
5C5C0
  3
AecDbDispRepColumnGridPlan50
350
5C5E7
  3
AecDbDispRepColumnGridRcp
350
5C619
  3
AecDbDispRepCurtainWallLayoutModel
350
5C61F
  3
AecDbDispRepCurtainWallLayoutPlan
350
5C5BC
  3
AecDbDispRepCurtainWallLayoutPlan100
350
5C5CA
  3
AecDbDispRepCurtainWallLayoutPlan50
350
5C5F8
  3
AecDbDispRepCurtainWallUnitModel
350
5C60A
  3
AecDbDispRepCurtainWallUnitPlan
350
5C5C2
  3
AecDbDispRepCurtainWallUnitPlan100
350
5C5C4
  3
AecDbDispRepCurtainWallUnitPlan50
350
5C5E5
  3
AecDbDispRepDimGroupPlan
350
5C645
  3
AecDbDispRepDimGroupPlan100
350
5C60C
  3
AecDbDispRepDimGroupPlan50
350
5C62B
  3
AecDbDispRepDisplayTheme
350
5C588
  3
AecDbDispRepDoorElev
350
5C635
  3
AecDbDispRepDoorModel
350
5C62D
  3
AecDbDispRepDoorNominal
350
5C639
  3
AecDbDispRepDoorPlan
350
5C63F
  3
AecDbDispRepDoorPlan50
350
5C62F
  3
AecDbDispRepDoorPlanHekto
350
5C625
  3
AecDbDispRepDoorRcp
350
5C641
  3
AecDbDispRepDoorThresholdPlan
350
5C631
  3
AecDbDispRepDoorThresholdSymbolPlan
350
5C623
  3
AecDbDispRepEditInPlaceProfile
350
5C571
  3
AecDbDispRepEntRef
350
5C575
  3
AecDbDispRepLayoutCurve
350
5C577
  3
AecDbDispRepLayoutGrid2d
350
5C56F
  3
AecDbDispRepLayoutGrid3d
350
5C57B
  3
AecDbDispRepMaskBlockRef
350
5C57E
  3
AecDbDispRepMaskBlockRefRcp
350
5C633
  3
AecDbDispRepMassElemModel
350
5C592
  3
AecDbDispRepMassElemPlan100
350
5C63B
  3
AecDbDispRepMassElemPlan50
350
5C637
  3
AecDbDispRepMassElemRcp
350
5C63D
  3
AecDbDispRepMassElemSchem
350
5C58C
  3
AecDbDispRepMassGroupModel
350
5C590
  3
AecDbDispRepMassGroupPlan
350
5C58E
  3
AecDbDispRepMassGroupPlan100
350
5C643
  3
AecDbDispRepMassGroupPlan50
350
5C627
  3
AecDbDispRepMassGroupRcp
350
5C629
  3
AecDbDispRepMaterial
350
5C586
  3
AecDbDispRepMaterial$General Medium Detail
350
5C6B1
  3
AecDbDispRepMvBlockRef
350
5C581
  3
AecDbDispRepMvBlockRef$Plan
350
5C6B4
  3
AecDbDispRepMvBlockRefModel
350
5C57D
  3
AecDbDispRepMvBlockRefPlan100
350
5C5CC
  3
AecDbDispRepMvBlockRefPlan50
350
5C5EB
  3
AecDbDispRepMvBlockRefRcp
350
5C64F
  3
AecDbDispRepOpening
350
5C64D
  3
AecDbDispRepOpeningModel
350
5C647
  3
AecDbDispRepOpeningPlan100
350
5C650
  3
AecDbDispRepOpeningPlan50
350
5C649
  3
AecDbDispRepOpeningPlanReflected
350
5C64B
  3
AecDbDispRepOpeningSillPlan
350
5C652
  3
AecDbDispRepPolygonModel
350
5C582
  3
AecDbDispRepPolygonTrueColour
350
5C584
  3
AecDbDispRepRailingModel
350
5C65E
  3
AecDbDispRepRailingPlan
350
5C654
  3
AecDbDispRepRailingPlan100
350
5C65A
  3
AecDbDispRepRailingPlan50
350
5C65C
  3
AecDbDispRepRoofModel
350
5C656
  3
AecDbDispRepRoofPlan
350
5C5CF
  3
AecDbDispRepRoofPlan100
350
5C5DF
  3
AecDbDispRepRoofPlan50
350
5C5F2
  3
AecDbDispRepRoofRcp
350
5C658
  3
AecDbDispRepRoofSlabModel
350
5C668
  3
AecDbDispRepRoofSlabPlan
350
5C5CD
  3
AecDbDispRepRoofSlabPlan100
350
5C5D5
  3
AecDbDispRepRoofSlabPlan50
350
5C5FA
  3
AecDbDispRepScheduleTable
350
5C684
  3
AecDbDispRepSlabModel
350
5C672
  3
AecDbDispRepSlabPlan
350
5C5DB
  3
AecDbDispRepSlabPlan100
350
5C5D1
  3
AecDbDispRepSlabPlan50
350
5C5F4
  3
AecDbDispRepSlice
350
5C58A
  3
AecDbDispRepSpaceDecomposed
350
5C666
  3
AecDbDispRepSpaceModel
350
5C66C
  3
AecDbDispRepSpacePlan
350
5C5D3
  3
AecDbDispRepSpacePlan100
350
5C5D7
  3
AecDbDispRepSpacePlan50
350
5C5FE
  3
AecDbDispRepSpaceRcp
350
5C664
  3
AecDbDispRepSpaceVolume
350
5C66E
  3
AecDbDispRepStairModel
350
5C660
  3
AecDbDispRepStairPlan
350
5C662
  3
AecDbDispRepStairPlan100
350
5C66A
  3
AecDbDispRepStairPlan50
350
5C670
  3
AecDbDispRepStairPlanOverlapping
350
5C5A6
  3
AecDbDispRepStairRcp
350
5C5A4
  3
AecDbDispRepWallGraph
350
5C5AA
  3
AecDbDispRepWallModel
350
5C596
  3
AecDbDispRepWallPlan
350
5C5DD
  3
AecDbDispRepWallPlan100
350
5C5D9
  3
AecDbDispRepWallPlan50
350
5C5FC
  3
AecDbDispRepWallRcp
350
5C59A
  3
AecDbDispRepWallSchem
350
5C5AC
  3
AecDbDispRepWindowAssemblyModel
350
5C5AE
  3
AecDbDispRepWindowAssemblyPlan
350
5C5EC
  3
AecDbDispRepWindowAssemblyPlan100
350
5C5EE
  3
AecDbDispRepWindowAssemblyPlan50
350
5C602
  3
AecDbDispRepWindowAssemblySillPlan
350
5C5A8
  3
AecDbDispRepWindowElev
350
5C594
  3
AecDbDispRepWindowModel
350
5C5A2
  3
AecDbDispRepWindowNominal
350
5C5B2
  3
AecDbDispRepWindowPlan
350
5C59C
  3
AecDbDispRepWindowPlan100
350
5C59E
  3
AecDbDispRepWindowPlan50
350
5C598
  3
AecDbDispRepWindowRcp
350
5C5B0
  3
AecDbDispRepWindowSillPlan
350
5C5A0
  3
AecDbDispRepZone
350
5C5E3
  3
AecDbDispRepZonePlan100
350
5C5E1
  3
AecDbDispRepZonePlan50
350
5C600
  3
AecsDbDispRepMemberElevationDesign
350
5C67C
  3
AecsDbDispRepMemberElevationDetail
350
5C678
  3
AecsDbDispRepMemberLogical
350
5C676
  3
AecsDbDispRepMemberModelDesign
350
5C67A
  3
AecsDbDispRepMemberModelDetail
350
5C674
  3
AecsDbDispRepMemberPlanDesign
350
5C67E
  3
AecsDbDispRepMemberPlanDetail
350
5C680
  3
AecsDbDispRepMemberPlanSketch
350
5C682
  0
DICTIONARY
  5
5C562
102
{ACAD_REACTORS
330
C
102
}
330
C
100
AcDbDictionary
281
     1
  3
*A1
350
5C563
  3
*A10
350
5C5F9
  3
*A100
350
5C5A7
  3
*A101
350
5C679
  3
*A102
350
5C5EA
  3
*A103
350
5C665
  3
*A104
350
5C5DE
  3
*A105
350
5C67F
  3
*A106
350
5C57C
  3
*A107
350
5C5AD
  3
*A108
350
5C585
  3
*A109
350
5C683
  3
*A11
350
5C5CB
  3
*A110
350
5C685
  3
*A111
350
5C66D
  3
*A112
350
5C5BD
  3
*A113
350
5C5FD
  3
*A114
350
5C636
  3
*A115
350
5C675
  3
*A116
350
5C5ED
  3
*A117
350
5C646
  3
*A118
350
5C65B
  3
*A119
350
5C609
  3
*A12
350
5C5C5
  3
*A120
350
5C58B
  3
*A121
350
5C60D
  3
*A122
350
5C681
  3
*A123
350
5C605
  3
*A124
350
5C58F
  3
*A125
350
5C642
  3
*A126
350
5C5A9
  3
*A127
350
5C593
  3
*A128
350
5C6B7
  3
*A129
350
5C5D6
  3
*A13
350
5C61C
  3
*A130
350
5C65D
  3
*A131
350
5C587
  3
*A132
350
5C5E0
  3
*A133
350
5C5E8
  3
*A134
350
5C624
  3
*A135
350
5C5AF
  3
*A136
350
5C591
  3
*A137
350
5C620
  3
*A138
350
5C5B3
  3
*A139
350
5C667
  3
*A14
350
5C5C7
  3
*A140
350
5C56C
  3
*A141
350
5C638
  3
*A142
350
5C640
  3
*A15
350
5C5AB
  3
*A16
350
5C60B
  3
*A17
350
5C651
  3
*A18
350
5C56E
  3
*A19
350
5C5B5
  3
*A2
350
5C64C
  3
*A20
350
5C63E
  3
*A21
350
5C583
  3
*A22
350
5C599
  3
*A23
350
5C65F
  3
*A24
350
5C614
  3
*A25
350
5C5D2
  3
*A26
350
5C663
  3
*A27
350
5C5C1
  3
*A28
350
5C659
  3
*A29
350
5C5D8
  3
*A3
350
5C5F3
  3
*A30
350
5C57A
  3
*A31
350
5C5F5
  3
*A32
350
5C5DC
  3
*A33
350
5C5C9
  3
*A34
350
5C626
  3
*A35
350
5C671
  3
*A36
350
5C59B
  3
*A37
350
5C5CE
  3
*A38
350
5C632
  3
*A39
350
5C63A
  3
*A4
350
5C5B9
  3
*A40
350
5C67B
  3
*A41
350
5C5FB
  3
*A42
350
5C5DA
  3
*A43
350
5C677
  3
*A44
350
5C5FF
  3
*A45
350
5C5A5
  3
*A46
350
5C616
  3
*A47
350
5C603
  3
*A48
350
5C570
  3
*A49
350
5C578
  3
*A5
350
5C63C
  3
*A50
350
5C5F7
  3
*A51
350
5C661
  3
*A52
350
5C58D
  3
*A53
350
5C61A
  3
*A54
350
5C601
  3
*A55
350
5C589
  3
*A56
350
5C576
  3
*A57
350
5C5C3
  3
*A58
350
5C5E2
  3
*A59
350
5C59D
  3
*A6
350
5C5A3
  3
*A60
350
5C669
  3
*A61
350
5C622
  3
*A62
350
5C5A1
  3
*A63
350
5C60F
  3
*A64
350
5C595
  3
*A65
350
5C628
  3
*A66
350
5C644
  3
*A67
350
5C57F
  3
*A68
350
5C648
  3
*A69
350
5C62C
  3
*A7
350
5C62E
  3
*A70
350
5C618
  3
*A71
350
5C67D
  3
*A72
350
5C5B1
  3
*A73
350
5C5E4
  3
*A74
350
5C61E
  3
*A75
350
5C56A
  3
*A76
350
5C572
  3
*A77
350
5C607
  3
*A78
350
5C5BB
  3
*A79
350
5C64E
  3
*A8
350
5C5BF
  3
*A80
350
5C62A
  3
*A81
350
5C5B7
  3
*A82
350
5C653
  3
*A83
350
5C5F1
  3
*A84
350
5C66B
  3
*A85
350
5C657
  3
*A86
350
5C630
  3
*A87
350
5C567
  3
*A88
350
5C574
  3
*A89
350
5C64A
  3
*A9
350
5C597
  3
*A90
350
5C59F
  3
*A91
350
5C5D4
  3
*A92
350
5C66F
  3
*A93
350
5C655
  3
*A94
350
5C5D0
  3
*A95
350
5C673
  3
*A96
350
5C612
  3
*A97
350
5C634
  3
*A98
350
5C5E6
  3
*A99
350
5C5EF
  0
DICTIONARY
  5
5C693
102
{ACAD_REACTORS
330
C
102
}
330
C
100
AcDbDictionary
281
     1
  3
AIA (256 Color)
350
5C6B8
  0
DICTIONARY
  5
F7
102
{ACAD_REACTORS
330
C
102
}
330
C
100
AcDbDictionary
281
     1
  0
DICTIONARY
  5
5C565
102
{ACAD_REACTORS
330
C
102
}
330
C
100
AcDbDictionary
281
     1
  3
AEC_VARS_ARCHBASE
350
5C6BB
  3
AEC_VARS_DWG_SETUP
350
5C566
  3
AEC_VARS_STRUCTUREBASE
350
5C6BC
  3
AECMX_VARS_MUNICH
350
5C6BD
  0
DICTIONARY
  5
1DD06
102
{ACAD_REACTORS
330
E7
102
}
330
E7
100
AcDbDictionary
281
     1
  0
DICTIONARY
  5
E8
102
{ACAD_REACTORS
330
E7
102
}
330
E7
100
AcDbDictionary
281
     1
  0
DICTIONARY
  5
1DD05
102
{ACAD_REACTORS
330
E7
102
}
330
E7
100
AcDbDictionary
281
     1
1001
ACAD
1000
<All
  0
XRECORD
  5
A6D
102
{ACAD_REACTORS
330
A6C
102
}
330
A6C
100
AcDbXrecord
280
     1
290
     1
  0
SORTENTSTABLE
  5
A63
102
{ACAD_REACTORS
330
A62
102
}
330
A62
100
AcDbSortentsTable
330
1F
331
AF33C
  5
AF33C
331
AF338
  5
AF338
331
AF334
  5
AF334
331
AF1E6
  5
AF1EE
331
AF330
  5
AF330
331
AEBEC
  5
AEBF0
331
AF1E2
  5
AF1EA
331
AF23D
  5
AF251
331
AF1DA
  5
AF1E4
331
AF239
  5
AF24D
331
AEBE4
  5
AEBE8
331
AF083
  5
AF162
331
AEBE0
  5
AEBE4
331
AEB6D
  5
AEB76
331
AEB69
  5
AEB72
331
AEBA4
  5
AEBAD
331
AEB65
  5
AEB6E
331
AEBA0
  5
AEBA9
331
AEB61
  5
AEB6A
331
AF397
  5
AF397
331
AF32C
  5
AF32C
331
AF235
  5
AF249
331
AF1D6
  5
AF1DC
331
AF310
  5
AE9F2
331
AF231
  5
AF244
331
AEC1B
  5
AF084
331
AEBDC
  5
AEBE0
331
AF1D2
  5
AF1D8
331
AEC17
  5
AF081
331
AF1CE
  5
AF1D5
331
AEC13
  5
AEC17
331
AF1CA
  5
AF1D0
331
AEB9C
  5
AEBA5
331
AEB98
  5
AEBA1
331
AEB94
  5
AEB9D
331
AE909
  5
AEB65
331
AEB90
  5
AEB99
331
AF260
  5
AF312
331
AF254
  5
AF1E3
331
AF1C6
  5
AF1CA
331
AEC0F
  5
AEC13
331
AF205
  5
AF23B
331
AF1C2
  5
AF1C6
331
AEBCC
  5
AEBDD
331
AEC0B
  5
AEC0F
331
AF201
  5
AF235
331
AF1FD
  5
AF205
331
AEC07
  5
AEC0B
331
AF1F9
  5
AF201
331
AEBBC
  5
AEBDC
331
AEBB8
  5
AEBCF
331
AEB8C
  5
AEB95
331
AE901
  5
AE9F1
331
AEB88
  5
AEB91
331
AEB80
  5
AEB89
331
AF3B6
  5
AF3B6
331
AF3B2
  5
AF3B2
331
AF347
  5
AF347
331
AF3AE
  5
AF3AE
331
AF248
  5
AF23D
331
AF244
  5
AF260
331
AF1F5
  5
AF1FD
331
AF16E
  5
AF1C2
331
AF240
  5
AF254
331
AF1F1
  5
AF1F9
331
AEBB4
  5
AEBBF
331
AF16A
  5
AF16E
331
AF1ED
  5
AF1F5
331
AF166
  5
AF16A
331
AF1E9
  5
AF1F1
331
AEBAC
  5
AEBB5
331
AEBF3
  5
AEBFA
331
AF162
  5
AF166
331
AEBA8
  5
AEBB1
331
AE3DA
  5
AE520
331
AEB78
  5
AEB81
331
AE8ED
  5
AE8FD
331
AEB74
  5
AEB7D
331
AE8E9
  5
AE8F8
331
AEB70
  5
AEB79
331
AF33B
  5
AF33B
331
AF337
  5
AF337
331
AF1E5
  5
AF1ED
331
AEBEF
  5
AEBF3
331
AF333
  5
AF333
331
AF1E1
  5
AF1E9
331
AEBEB
  5
AEBEF
331
AF1DD
  5
AF1E7
331
AF23C
  5
AF250
331
AF1D9
  5
AF1E2
331
AF238
  5
AF24C
331
AEBE3
  5
AEBE7
331
AF082
  5
AF161
331
AEB6C
  5
AEB75
331
AEB68
  5
AEB71
331
AEBA7
  5
AEBB0
331
AEB64
  5
AEB6D
331
AEBA3
  5
AEBAC
331
AEB60
  5
AEB69
331
AF396
  5
AF396
331
AF234
  5
AF248
331
AEBDF
  5
AEBE3
331
AF1D5
  5
AF1DB
331
AF313
  5
AE8FE
331
AF230
  5
AF243
331
AEC1A
  5
AF083
331
AEBDB
  5
AEBDF
331
AF1D1
  5
AF1D7
331
AF1CD
  5
AF1D4
331
AEC16
  5
AEC1B
331
AF1C9
  5
AF1CD
331
AEC12
  5
AEC16
331
AEB9F
  5
AEBA8
331
AEB9B
  5
AEBA4
331
AEB97
  5
AEBA0
331
AEB93
  5
AEB9C
331
AF257
  5
AF311
331
AF253
  5
AF1E1
331
AEC0E
  5
AEC12
331
AF1C5
  5
AF1C9
331
AF204
  5
AF23A
331
AEC0A
  5
AEC0E
331
AF200
  5
AF234
331
AF1FC
  5
AF204
331
AEBBB
  5
AEBDB
331
AF171
  5
AF1C5
331
AF1F8
  5
AF200
331
AEB8F
  5
AEB98
331
AE904
  5
AEA01
331
AEB8B
  5
AEB94
331
AE900
  5
AE9F0
331
AEB87
  5
AEB90
331
AF24F
  5
AF240
331
AF3B5
  5
AF3B5
331
AF3B1
  5
AF3B1
331
AF3AD
  5
AF3AD
331
AF243
  5
AF257
331
AEBB7
  5
AEBCD
331
AF16D
  5
AF171
331
AF1F4
  5
AF1FC
331
AEBFA
  5
AEC07
331
AF169
  5
AF16D
331
AF1F0
  5
AF1F8
331
AEBAF
  5
AEBB8
331
AF165
  5
AF169
331
AF1EC
  5
AF1F4
331
AEBF2
  5
AEBF9
331
AF161
  5
AF165
331
AF1E8
  5
AF1F0
331
AEB77
  5
AEB80
331
AEB73
  5
AEB7C
331
AE8E8
  5
AE8F7
331
AF33A
  5
AF33A
331
AF332
  5
AF332
331
AEBEE
  5
AEBF2
331
AF1E4
  5
AF1EC
331
AF23F
  5
AF253
331
AEBEA
  5
AEBEE
331
AF1E0
  5
AF1E8
331
AF1DC
  5
AF1E6
331
AF23B
  5
AF24F
331
AF1D8
  5
AF1E0
331
AEBE2
  5
AEBE6
331
AF081
  5
AF160
331
AEB6F
  5
AEB78
331
AEB6B
  5
AEB74
331
AEB67
  5
AEB70
331
AEBA6
  5
AEBAF
331
AEB63
  5
AEB6C
331
AEBA2
  5
AEBAB
331
AF237
  5
AF24B
331
AF312
  5
AE900
331
AEBDE
  5
AEBE2
331
AF1D4
  5
AF1DA
331
AF233
  5
AF247
331
AF22F
  5
AF242
331
AEC19
  5
AF082
331
AEBDA
  5
AEBDE
331
AF1D0
  5
AF1D6
331
AEC15
  5
AEC1A
331
AF1CC
  5
AF1D3
331
AEC11
  5
AEC15
331
AEBD2
  5
AE496
331
AF1C8
  5
AF1CC
331
AEB9E
  5
AEBA7
331
AEB5F
  5
AEB68
331
AEB9A
  5
AEBA3
331
AE90F
  5
AEB66
331
AEB96
  5
AEB9F
331
AEB92
  5
AEB9B
331
AF256
  5
AF310
331
AF252
  5
AF1D1
331
AEC0D
  5
AEC11
331
AF1C4
  5
AF1C8
331
AF203
  5
AF239
331
AF1FF
  5
AF22E
331
AEC09
  5
AEC0D
331
AF1FB
  5
AF203
331
AEBBA
  5
AEBDA
331
AF170
  5
AF1C4
331
AEB8E
  5
AEB97
331
AE903
  5
AEA00
331
AEB8A
  5
AEB93
331
AE8FF
  5
AE9EF
331
AEB86
  5
AEB8F
331
AF24E
  5
AF23F
331
AF3B4
  5
AF3B4
331
AF3B0
  5
AF3B0
331
AF3AC
  5
AF3AC
331
AF1F7
  5
AF1FF
331
AF242
  5
AF256
331
AEBB6
  5
AEBCC
331
AF16C
  5
AF170
331
AF1F3
  5
AF1FB
331
AF1EF
  5
AF1F7
331
AEBF9
  5
AEC06
331
AF168
  5
AF16C
331
AEBF5
  5
AEC05
331
AF164
  5
AF168
331
AF1EB
  5
AF1F3
331
AEBF1
  5
AEBF5
331
AF160
  5
AF164
331
AEB7E
  5
AEB87
331
AE8EF
  5
AE8FF
331
AEB76
  5
AEB7F
331
AE8EB
  5
AE8FB
331
AEB72
  5
AEB7B
331
AF339
  5
AF339
331
AF335
  5
AF335
331
AF1E7
  5
AF1EF
331
AF331
  5
AF331
331
AF398
  5
AF398
331
AEBED
  5
AEBF1
331
AF1E3
  5
AF1EB
331
AF23E
  5
AF252
331
AF1DB
  5
AF1E5
331
AF23A
  5
AF24E
331
AEBE5
  5
AEBEA
331
AF084
  5
AF163
331
AEBE1
  5
AEBE5
331
AEB6E
  5
AEB77
331
AEB6A
  5
AEB73
331
AE8E7
  5
AE8F6
331
AEB66
  5
AEB6F
331
AEBA5
  5
AEBAE
331
AEB62
  5
AEB6B
331
AEBA1
  5
AEBAA
331
AF32D
  5
AF32D
331
AF236
  5
AF24A
331
AF1D7
  5
AF1DD
331
AF311
  5
AE908
331
AF232
  5
AF246
331
AEBDD
  5
AEBE1
331
AF1D3
  5
AF1D9
331
AF22E
  5
AF241
331
AEBD9
  5
AE51B
331
AEC14
  5
AEC19
331
AF1CB
  5
AF1D2
331
AEC10
  5
AEC14
331
AEB9D
  5
AEBA6
331
AEB99
  5
AEBA2
331
AEB95
  5
AEB9E
331
AEB91
  5
AEB9A
331
AF261
  5
AF313
331
AF255
  5
AF261
331
AF1C7
  5
AF1CB
331
AF206
  5
AF23C
331
AF251
  5
AF1CE
331
AEC0C
  5
AEC10
331
AF1C3
  5
AF1C7
331
AF202
  5
AF236
331
AF1FE
  5
AF206
331
AEC08
  5
AEC0C
331
AF1FA
  5
AF202
331
AEBB9
  5
AEBD4
331
AEB8D
  5
AEB96
331
AE902
  5
AE9FF
331
AEB89
  5
AEB92
331
AE8FE
  5
AE9EE
331
AEB85
  5
AEB8E
331
AF24D
  5
AF23E
331
AF3B3
  5
AF3B3
331
AF3AF
  5
AF3AF
331
AF348
  5
AF348
331
AF3AB
  5
AF3AB
331
AF16F
  5
AF1C3
331
AF1F6
  5
AF1FE
331
AF241
  5
AF255
331
AF16B
  5
AF16F
331
AEBB5
  5
AEBCA
331
AF1F2
  5
AF1FA
331
AF167
  5
AF16B
331
AF1EE
  5
AF1F6
331
AF163
  5
AF167
331
AEBAD
  5
AEBB6
331
AEBF4
  5
AEC04
331
AF1EA
  5
AF1F2
331
AEBF0
  5
AEBF4
331
AE8F6
  5
AE907
331
AEB7D
  5
AEB86
331
AEB79
  5
AEB82
331
AEB75
  5
AEB7E
331
AE8EA
  5
AE8FA
331
AEB71
  5
AEB7A
  0
SORTENTSTABLE
  5
AF388
102
{ACAD_REACTORS
330
AF387
102
}
330
AF387
100
AcDbSortentsTable
330
AF37A
  0
XRECORD
  5
A21B0
102
{ACAD_REACTORS
330
A21AF
102
}
330
A21AF
100
AcDbXrecord
280
     1
 90
        1
340
1DCB0
  0
XRECORD
  5
A21B4
102
{ACAD_REACTORS
330
A21B3
102
}
330
A21B3
100
AcDbXrecord
280
     1
 90
        1
340
A12
  0
XRECORD
  5
AF40F
102
{ACAD_REACTORS
330
AEC18
102
}
330
AEC18
100
AcDbXrecord
280
     1
 40
86295.0
  1
\pxql;{\fArial|b0|i0|c0|p34;AIR RELIEF VALVE - TUBING}
  0
XRECORD
  5
A21C8
102
{ACAD_REACTORS
330
A21C7
102
}
330
A21C7
100
AcDbXrecord
280
     1
 90
        1
340
1DCB0
  0
XRECORD
  5
A21CC
102
{ACAD_REACTORS
330
A21CB
102
}
330
A21CB
100
AcDbXrecord
280
     1
 90
        1
340
A12
  0
ACDBDETAILVIEWSTYLE
  5
5C440
102
{ACAD_XDICTIONARY
360
A21DF
102
}
102
{ACAD_REACTORS
330
5C43F
102
}
330
5C43F
100
AcDbModelDocViewStyle
 70
     0
  3
Imperial24
290
     0
100
AcDbDetailViewStyle
 70
     0
 71
     0
 90
        3
 71
     1
340
11
 62
   256
 40
0.24
340
0
 62
   256
 40
0.24
300

 40
0.36
280
     3
 71
     2
340
16
 90
       25
 62
   256
 71
     3
340
11
 62
   256
 40
0.24
 90
        1
 40
0.75
 90
        1
300
%<\AcVar ViewType \f "%tc1">% %<\AcVar ViewDetailId>%\PSCALE %<\AcVar ViewScale \f "%sn">%
 71
     4
340
16
 90
       25
 62
   256
340
16
 90
       25
 62
   256
280
     0
  0
GROUP
  5
AF245
102
{ACAD_REACTORS
330
D
102
}
330
D
100
AcDbGroup
300

 70
     1
 71
     1
340
AF244
340
AF243
340
AF242
340
AF241
340
AF240
340
AF23F
340
AF23E
340
AF23D
340
AF23C
340
AF23B
340
AF23A
340
AF239
340
AF238
340
AF237
340
AF236
340
AF235
340
AF234
340
AF233
340
AF232
340
AF231
340
AF230
340
AF22F
340
AF22E
  0
GROUP
  5
AF336
102
{ACAD_REACTORS
330
D
102
}
330
D
100
AcDbGroup
300

 70
     1
 71
     1
340
AF335
340
AF334
340
AF333
340
AF332
340
AF331
340
AF330
340
AF32D
340
AF32C
340
AF244
340
AF243
340
AF242
340
AF241
340
AF240
340
AF23F
340
AF23E
340
AF23D
340
AF23C
340
AF23B
340
AF23A
340
AF239
340
AF238
340
AF237
340
AF236
340
AF235
340
AF234
340
AF233
340
AF232
340
AF231
340
AF230
340
AF22F
340
AF22E
  0
LAYOUT
  5
A21A1
102
{ACAD_REACTORS
330
1A
102
}
330
1A
100
AcDbPlotSettings
  1

  2
DWG To PDF.pc3
  4
ANSI_A_(8.50_x_11.00_Inches)
  6

 40
5.793749809265136
 41
17.79375076293945
 42
5.793746948242187
 43
17.79376220703125
 44
215.8999938964844
 45
279.3999938964844
 46
0.0
 47
0.0
 48
0.0
 49
0.0
140
0.0
141
0.0
142
1.0
143
1.0
 70
   688
 72
     0
 73
     1
 74
     5
  7
Standard Pen Settings.ctb
 75
    16
147
1.0
 76
     0
 77
     2
 78
   300
148
0.0
149
0.0
100
AcDbLayout
  1
8.5 X 11
 70
     1
 71
     1
 10
-0.7005418191744587
 20
-0.2281003861915408
 11
10.29945794052965
 21
8.271899373512569
 12
0.0
 22
0.0
 32
0.0
 14
0.0460402222469014
 24
0.0401186204693573
 34
-0.0000000000112498
 15
9.568821384571574
 25
7.999140916809832
 35
0.0000000000002956
146
0.0
 13
0.0
 23
0.0
 33
0.0
 16
1.0
 26
0.0
 36
0.0
 17
0.0
 27
1.0
 37
0.0
 76
     0
330
A21A0
331
A21AE
1001
ACAD_PSEXT
1000
DWG To PDF.pc3
1000
DWG To PDF
1000
File
1000

1070
     0
  0
LAYOUT
  5
A21B9
102
{ACAD_REACTORS
330
1A
102
}
330
1A
100
AcDbPlotSettings
  1

  2
DWG To PDF.pc3
  4
ISO_A4_(210.00_x_297.00_MM)
  6

 40
5.793749809265136
 41
17.79375076293945
 42
5.793746948242187
 43
17.79376220703125
 44
210.0
 45
297.0
 46
0.0
 47
0.0
 48
0.0
 49
0.0
140
0.0
141
0.0
142
1.0
143
0.0393700787401575
 70
   672
 72
     1
 73
     1
 74
     5
  7
Standard Pen Settings.ctb
 75
    16
147
25.4
 76
     0
 77
     2
 78
   300
148
0.0
149
0.0
100
AcDbLayout
  1
A4
 70
     1
 71
     2
 10
-0.7005418191744587
 20
-0.2281003861915408
 11
10.99237156665231
 21
8.039616149241531
 12
0.0
 22
0.0
 32
0.0
 14
0.0145643619954186
 24
0.0132348038147043
 34
-0.0000000349181948
 15
10.27458914444549
 25
7.796388667592996
 35
0.0000000814935746
146
0.0
 13
0.0
 23
0.0
 33
0.0
 16
1.0
 26
0.0
 36
0.0
 17
0.0
 27
1.0
 37
0.0
 76
     0
330
A21B8
331
A21C6
1001
ACAD_PSEXT
1000
DWG To PDF.pc3
1000
DWG To PDF
1000
File
1000

1070
     0
  0
LAYOUT
  5
22
102
{ACAD_XDICTIONARY
360
66EB6
102
}
102
{ACAD_REACTORS
330
1A
102
}
330
1A
100
AcDbPlotSettings
  1

  2
DWG To PDF.pc3
  4
ANSI_full_bleed_A_(8.50_x_11.00_Inches)
  6

 40
0.7937499880790711
 41
0.7937499880790711
 42
0.7937469482421875
 43
0.79376220703125
 44
215.8999938964844
 45
279.3999938964844
 46
30.37052290086102
 47
0.0
 48
-146.9342066687381
 49
-1.639012634498612
140
-81.17209046769231
141
34.71350671378767
142
1.0
143
6.012536734408003
 70
 11956
 72
     0
 73
     1
 74
     4
  7
Standard Pen Settings.ctb
 75
     0
147
0.1663191501645703
 76
     0
 77
     2
 78
   300
148
3732.128849385947
149
41.63092091626476
100
AcDbLayout
  1
Model
 70
     1
 71
     0
 10
0.0
 20
0.0
 11
12.0
 21
9.0
 12
0.0
 22
0.0
 32
0.0
 14
0.0
 24
0.0
 34
0.0
 15
0.0
 25
0.0
 35
0.0
146
0.0
 13
0.0
 23
0.0
 33
0.0
 16
1.0
 26
0.0
 36
0.0
 17
0.0
 27
1.0
 37
0.0
 76
     0
330
1F
331
DAB
1001
ACAD_PSEXT
1000
DWG To PDF.pc3
1000
DWG To PDF
1000
File
1000

1070
     0
  0
MATERIAL
  5
97
102
{ACAD_REACTORS
330
72
102
}
330
72
100
AcDbMaterial
  1
ByBlock
 73
     1
 78
     1
172
     1
176
     1
270
     1
274
     1
 94
       63
  0
MATERIAL
  5
96
102
{ACAD_REACTORS
330
72
102
}
330
72
100
AcDbMaterial
  1
ByLayer
 73
     1
 78
     1
172
     1
176
     1
270
     1
274
     1
 94
       63
  0
MATERIAL
  5
98
102
{ACAD_REACTORS
330
72
102
}
330
72
100
AcDbMaterial
  1
Global
 73
     1
 78
     1
172
     1
176
     1
270
     1
274
     1
 94
       63
  0
MLEADERSTYLE
  5
A34
102
{ACAD_REACTORS
330
A33
102
}
330
A33
100
AcDbMLeaderStyle
179
     2
170
     2
171
     1
172
     0
 90
        2
 40
0.0
 41
0.0
173
     1
 91
-1056964608
340
14
 92
       -2
290
     1
 42
0.09
291
     1
 43
0.36
  3
Standard
 44
0.18
300

342
11
174
     1
178
     6
175
     1
176
     0
 93
-1056964608
 45
0.18
292
     0
297
     0
 46
0.18
 94
-1056964608
 47
1.0
 49
1.0
140
1.0
293
     1
141
0.0
294
     1
177
     0
142
1.0
295
     0
296
     0
143
0.125
271
     0
272
     9
273
     9
298
     0
  0
MLINESTYLE
  5
18
102
{ACAD_REACTORS
330
17
102
}
330
17
100
AcDbMlineStyle
  2
STANDARD
 70
     0
  3

 62
   256
 51
90.0
 52
90.0
 71
     2
 49
0.5
 62
   256
  6
BYLAYER
 49
-0.5
 62
   256
  6
BYLAYER
  0
PLOTSETTINGS
  5
E0
102
{ACAD_REACTORS
330
19
102
}
330
19
100
AcDbPlotSettings
  1
500 - 24x36
  2
HP DesignJet 500 42 by HP.pc3
  4
User1659
  6

 40
0.0
 41
0.0
 42
0.0
 43
0.0
 44
914.4000244140626
 45
609.6000366210937
 46
0.0000122070312948
 47
0.000018310546897
 48
0.0
 49
0.0
140
36.0
141
24.0
142
1.0
143
1.0
 70
  2740
 72
     0
 73
     0
 74
     4
  7
DVD 2005.ctb
 75
    16
147
1.0
 76
     0
 77
     2
 78
   300
148
0.0
149
0.0
1001
ACAD_PSEXT
1000
HP DesignJet 500 42 by HP.pc3
1000
HP DesignJet 500 42 by HP
1000
\\bobxp2
1000

1070
     0
  0
PLOTSETTINGS
  5
DE
102
{ACAD_REACTORS
330
19
102
}
330
19
100
AcDbPlotSettings
  1
500 - 30x42 Landscape
  2
HP DesignJet 500 42 by HP.pc3
  4
User637
  6

 40
0.0
 41
0.0
 42
0.0
 43
0.0
 44
762.0
 45
1066.800048828125
 46
-0.0000000000000902
 47
0.0000244140624993
 48
-44.0
 49
0.0000000000000071
140
-2.0
141
30.00000000000002
142
1.0
143
1.0
 70
  2804
 72
     0
 73
     1
 74
     4
  7
DVD 2005.ctb
 75
    16
147
1.0
 76
     0
 77
     2
 78
   300
148
1117.6
149
-0.0000000000001805
1001
ACAD_PSEXT
1000
HP DesignJet 500 42 by HP.pc3
1000
HP DesignJet 500 42 by HP
1000
\\bobxp2
1000

1070
     0
  0
PLOTSETTINGS
  5
DF
102
{ACAD_REACTORS
330
19
102
}
330
19
100
AcDbPlotSettings
  1
500 - 30x42 Portrait
  2
HP DesignJet 500 42 by HP.pc3
  4
User637
  6

 40
0.0
 41
0.0
 42
0.0
 43
0.0
 44
762.0
 45
1066.800048828125
 46
-0.0000000000000902
 47
0.0000244140626798
 48
-38.0
 49
34.00000000000002
140
-7.999999999999992
141
76.0
142
1.0
143
1.0
 70
  2804
 72
     0
 73
     0
 74
     4
  7
DVD 2005.ctb
 75
    16
147
1.0
 76
     0
 77
     2
 78
   300
148
965.1999999999999
149
-863.6000000000004
1001
ACAD_PSEXT
1000
HP DesignJet 500 42 by HP.pc3
1000
HP DesignJet 500 42 by HP
1000
\\bobxp2
1000

1070
     0
  0
PLOTSETTINGS
  5
1052
102
{ACAD_REACTORS
330
19
102
}
330
19
100
AcDbPlotSettings
  1
6200 8.5x11
  2
HP Officejet 6200 series (Copy 1)
  4
Letter
  6

 40
3.96875
 41
3.799404859542846
 42
3.968734741210937
 43
3.17498779296875
 44
215.8999938964844
 45
279.3999938964844
 46
0.0
 47
0.0
 48
0.0
 49
0.0
140
0.0
141
0.0
142
1.0
143
1.0
 70
 15024
 72
     0
 73
     1
 74
     5
  7
DVD 2005.ctb
 75
    16
147
1.0
 76
     0
 77
     2
 78
   300
148
0.0
149
0.0
1001
ACAD_PSEXT
1000
HP Officejet 6200 series (Copy 1)
1000
HP Officejet 6200 series
1000
USB002
1000

1070
     0
  0
PLOTSETTINGS
  5
E1
102
{ACAD_REACTORS
330
19
102
}
330
19
100
AcDbPlotSettings
  1
9800 - 11x17 Reduced
  2
HP Deskjet 9800 Series.pc3
  4
Tabloid
  6

 40
4.011083126068115
 41
15.65274238586425
 42
4.011077880859375
 43
3.17498779296875
 44
279.3999938964844
 45
431.7999877929687
 46
0.0
 47
2.952754139900229
 48
0.0
 49
0.0
140
36.0
141
24.0
142
1.0
143
2.246314643717012
 70
  2740
 72
     0
 73
     1
 74
     4
  7
DVD 2005.ctb
 75
     0
147
0.4451736103831314
 76
     0
 77
     2
 78
   300
148
0.0
149
0.0
1001
ACAD_PSEXT
1000
HP Deskjet 9800 Series.pc3
1000
HP Deskjet 9800 Series
1000
\\Server
1000

1070
     0
  0
PLOTSETTINGS
  5
E2
102
{ACAD_REACTORS
330
19
102
}
330
19
100
AcDbPlotSettings
  1
K550 - 8x11 Reduced
  2
HP Officejet Pro K550 Series.pc3
  4
Letter
  6

 40
4.095749855041503
 41
12.73173427581787
 42
4.095748901367187
 43
4.09576416015625
 44
215.8999938964844
 45
279.3999938964844
 46
16.3300824165344
 47
0.0
 48
0.0
 49
0.0
140
36.0
141
24.0
142
1.0
143
3.482466807486017
 70
  2804
 72
     0
 73
     1
 74
     4
  7
DVD 2005.ctb
 75
     0
147
0.2871527728133314
 76
     0
 77
     2
 78
   300
148
0.0
149
0.0
1001
ACAD_PSEXT
1000
HP Officejet Pro K550 Series.pc3
1000
HP Officejet Pro K550 Series
1000
Next to Jodi
1000

1070
     0
  0
ACDBPLACEHOLDER
  5
F
102
{ACAD_REACTORS
330
E
102
}
330
E
  0
DICTIONARY
  5
A15E6
330
A15E5
100
AcDbDictionary
280
     1
281
     1
  3
ADSK_XREC_MENTALRAYSETTINGSINFO
360
A15E7
  0
SCALE
  5
4D48B
102
{ACAD_REACTORS
330
A11
102
}
330
A11
100
AcDbScale
 70
     0
300
1" = 40'
140
1.0
141
40.0
290
     0
  0
SCALE
  5
4D48C
102
{ACAD_REACTORS
330
A11
102
}
330
A11
100
AcDbScale
 70
     0
300
1" = 1'
140
1.0
141
1.0
290
     0
  0
SCALE
  5
5C55A
102
{ACAD_REACTORS
330
A11
102
}
330
A11
100
AcDbScale
 70
     0
300
1" =10'_XREF
140
1.0
141
10.0
290
     0
  0
SCALE
  5
5C55B
102
{ACAD_REACTORS
330
A11
102
}
330
A11
100
AcDbScale
 70
     0
300
2" = 1'-0"_XREF
140
2.0
141
12.0
290
     0
  0
SCALE
  5
A12
102
{ACAD_REACTORS
330
A11
102
}
330
A11
100
AcDbScale
 70
     0
300
1:1
140
1.0
141
1.0
290
     0
  0
SCALE
  5
1DC91
102
{ACAD_REACTORS
330
A11
102
}
330
A11
100
AcDbScale
 70
     0
300
1:2
140
1.0
141
2.0
290
     0
  0
SCALE
  5
1DC92
102
{ACAD_REACTORS
330
A11
102
}
330
A11
100
AcDbScale
 70
     0
300
1:4
140
1.0
141
4.0
290
     0
  0
SCALE
  5
1DC93
102
{ACAD_REACTORS
330
A11
102
}
330
A11
100
AcDbScale
 70
     0
300
1:5
140
1.0
141
5.0
290
     0
  0
SCALE
  5
1DC94
102
{ACAD_REACTORS
330
A11
102
}
330
A11
100
AcDbScale
 70
     0
300
1:8
140
1.0
141
8.0
290
     0
  0
SCALE
  5
1DC95
102
{ACAD_REACTORS
330
A11
102
}
330
A11
100
AcDbScale
 70
     0
300
1:10
140
1.0
141
10.0
290
     0
  0
SCALE
  5
1DC96
102
{ACAD_REACTORS
330
A11
102
}
330
A11
100
AcDbScale
 70
     0
300
1:16
140
1.0
141
16.0
290
     0
  0
SCALE
  5
1DC97
102
{ACAD_REACTORS
330
A11
102
}
330
A11
100
AcDbScale
 70
     0
300
1:20
140
1.0
141
20.0
290
     0
  0
SCALE
  5
1DC98
102
{ACAD_REACTORS
330
A11
102
}
330
A11
100
AcDbScale
 70
     0
300
1:30
140
1.0
141
30.0
290
     0
  0
SCALE
  5
1DC99
102
{ACAD_REACTORS
330
A11
102
}
330
A11
100
AcDbScale
 70
     0
300
1:40
140
1.0
141
40.0
290
     0
  0
SCALE
  5
1DC9A
102
{ACAD_REACTORS
330
A11
102
}
330
A11
100
AcDbScale
 70
     0
300
1:50
140
1.0
141
50.0
290
     0
  0
SCALE
  5
1DC9B
102
{ACAD_REACTORS
330
A11
102
}
330
A11
100
AcDbScale
 70
     0
300
1:100
140
1.0
141
100.0
290
     0
  0
SCALE
  5
1DC9C
102
{ACAD_REACTORS
330
A11
102
}
330
A11
100
AcDbScale
 70
     0
300
2:1
140
2.0
141
1.0
290
     0
  0
SCALE
  5
1DC9D
102
{ACAD_REACTORS
330
A11
102
}
330
A11
100
AcDbScale
 70
     0
300
4:1
140
4.0
141
1.0
290
     0
  0
SCALE
  5
1DC9E
102
{ACAD_REACTORS
330
A11
102
}
330
A11
100
AcDbScale
 70
     0
300
8:1
140
8.0
141
1.0
290
     0
  0
SCALE
  5
1DC9F
102
{ACAD_REACTORS
330
A11
102
}
330
A11
100
AcDbScale
 70
     0
300
10:1
140
10.0
141
1.0
290
     0
  0
SCALE
  5
1DCA0
102
{ACAD_REACTORS
330
A11
102
}
330
A11
100
AcDbScale
 70
     0
300
100:1
140
100.0
141
1.0
290
     0
  0
SCALE
  5
1DCA1
102
{ACAD_REACTORS
330
A11
102
}
330
A11
100
AcDbScale
 70
     0
300
1/128" = 1'-0"
140
0.0078125
141
12.0
290
     0
  0
SCALE
  5
1DCA2
102
{ACAD_REACTORS
330
A11
102
}
330
A11
100
AcDbScale
 70
     0
300
1/64" = 1'-0"
140
0.015625
141
12.0
290
     0
  0
SCALE
  5
1DCA3
102
{ACAD_REACTORS
330
A11
102
}
330
A11
100
AcDbScale
 70
     0
300
1/32" = 1'-0"
140
0.03125
141
12.0
290
     0
  0
SCALE
  5
1DCA4
102
{ACAD_REACTORS
330
A11
102
}
330
A11
100
AcDbScale
 70
     0
300
1/16" = 1'-0"
140
0.0625
141
12.0
290
     0
  0
SCALE
  5
1DCA5
102
{ACAD_REACTORS
330
A11
102
}
330
A11
100
AcDbScale
 70
     0
300
3/32" = 1'-0"
140
0.09375
141
12.0
290
     0
  0
SCALE
  5
1DCA6
102
{ACAD_REACTORS
330
A11
102
}
330
A11
100
AcDbScale
 70
     0
300
1/8" = 1'-0"
140
0.125
141
12.0
290
     0
  0
SCALE
  5
1DCA7
102
{ACAD_REACTORS
330
A11
102
}
330
A11
100
AcDbScale
 70
     0
300
3/16" = 1'-0"
140
0.1875
141
12.0
290
     0
  0
SCALE
  5
1DCA8
102
{ACAD_REACTORS
330
A11
102
}
330
A11
100
AcDbScale
 70
     0
300
1/4" = 1'-0"
140
0.25
141
12.0
290
     0
  0
SCALE
  5
1DCA9
102
{ACAD_REACTORS
330
A11
102
}
330
A11
100
AcDbScale
 70
     0
300
3/8" = 1'-0"
140
0.375
141
12.0
290
     0
  0
SCALE
  5
1DCAA
102
{ACAD_REACTORS
330
A11
102
}
330
A11
100
AcDbScale
 70
     0
300
1/2" = 1'-0"
140
0.5
141
12.0
290
     0
  0
SCALE
  5
1DCAB
102
{ACAD_REACTORS
330
A11
102
}
330
A11
100
AcDbScale
 70
     0
300
3/4" = 1'-0"
140
0.75
141
12.0
290
     0
  0
SCALE
  5
1DCAC
102
{ACAD_REACTORS
330
A11
102
}
330
A11
100
AcDbScale
 70
     0
300
1" = 1'-0"
140
1.0
141
12.0
290
     0
  0
SCALE
  5
1DCAD
102
{ACAD_REACTORS
330
A11
102
}
330
A11
100
AcDbScale
 70
     0
300
1-1/2" = 1'-0"
140
1.5
141
12.0
290
     0
  0
SCALE
  5
1DCAE
102
{ACAD_REACTORS
330
A11
102
}
330
A11
100
AcDbScale
 70
     0
300
3" = 1'-0"
140
3.0
141
12.0
290
     0
  0
SCALE
  5
1DCAF
102
{ACAD_REACTORS
330
A11
102
}
330
A11
100
AcDbScale
 70
     0
300
6" = 1'-0"
140
6.0
141
12.0
290
     0
  0
SCALE
  5
1DCB0
102
{ACAD_REACTORS
330
A11
102
}
330
A11
100
AcDbScale
 70
     0
300
1'-0" = 1'-0"
140
12.0
141
12.0
290
     1
  0
ACDBSECTIONVIEWSTYLE
  5
5C43E
102
{ACAD_XDICTIONARY
360
A21DD
102
}
102
{ACAD_REACTORS
330
5C43D
102
}
330
5C43D
100
AcDbModelDocViewStyle
 70
     0
  3
Imperial24
290
     0
100
AcDbSectionViewStyle
 70
     0
 71
     0
 90
       78
 71
     1
340
11
 62
   256
 40
0.24
340
0
340
0
 62
   256
 40
0.24
300
I, O, Q, S, X, Z
 40
0.48
 90
        3
 40
0.18
 90
        1
 71
     2
340
16
 90
       25
 62
   256
340
16
 90
       50
 62
   256
 40
0.24
 40
0.0
 40
0.24
 71
     3
340
11
 62
   256
 40
0.24
 90
        1
 40
0.75
 90
        1
300
%<\AcVar ViewType \f "%tc1">% %<\AcVar ViewSectionStartId>%-%<\AcVar ViewSectionEndId>%\PSCALE %<\AcVar ViewScale \f "%sn">%
 71
     4
 62
   256
 62
   257
300
ANSI31
 40
1.0
 90
        0
290
     0
290
     0
 90
        6
 40
0.0
 40
1.570796326794896
 40
0.2617993877991494
 40
1.308996938995747
 40
-0.2617993877991494
 40
1.832595714594046
  0
TABLESTYLE
  5
87
102
{ACAD_XDICTIONARY
360
B4E
102
}
102
{ACAD_REACTORS
330
86
102
}
330
86
100
AcDbTableStyle
280
     0
  3
Standard
 70
     0
 71
     0
 40
0.06
 41
0.06
280
     0
281
     0
  7
Standard
140
0.18
170
     2
 62
     0
 63
     7
283
     0
 90
      512
 91
        0
  1

274
    -2
284
     1
 64
     0
275
    -2
285
     1
 65
     0
276
    -2
286
     1
 66
     0
277
    -2
287
     1
 67
     0
278
    -2
288
     1
 68
     0
279
    -2
289
     1
 69
     0
  7
Standard
140
0.25
170
     5
 62
     0
 63
     7
283
     0
 90
      512
 91
        0
  1

274
    -2
284
     1
 64
     0
275
    -2
285
     1
 65
     0
276
    -2
286
     1
 66
     0
277
    -2
287
     1
 67
     0
278
    -2
288
     1
 68
     0
279
    -2
289
     1
 69
     0
  7
Standard
140
0.18
170
     5
 62
     0
 63
     7
283
     0
 90
      512
 91
        0
  1

274
    -2
284
     1
 64
     0
275
    -2
285
     1
 65
     0
276
    -2
286
     1
 66
     0
277
    -2
287
     1
 67
     0
278
    -2
288
     1
 68
     0
279
    -2
289
     1
 69
     0
  0
VISUALSTYLE
  5
9F
102
{ACAD_REACTORS
330
99
102
}
330
99
100
AcDbVisualStyle
  2
2dWireframe
 70
     4
177
     3
291
     0
 70
    58
 90
        0
176
     1
 90
        2
176
     1
 90
        1
176
     1
 90
        0
176
     1
 40
0.6
176
     1
 40
30.0
176
     1
 62
     7
420
 16777215
176
     1
 90
        1
176
     1
 90
        4
176
     1
 62
     7
176
     1
 62
   257
176
     1
 90
        1
176
     1
 90
        1
176
     1
 40
1.0
176
     1
 90
        0
176
     1
 62
   257
176
     1
 40
1.0
176
     1
 90
        1
176
     1
 90
        6
176
     1
 90
        2
176
     1
 62
     7
176
     1
 90
        5
176
     1
 90
        0
176
     1
 90
        0
176
     1
290
     0
176
     1
 90
        1
176
     1
 40
0.0
176
     1
 90
        0
176
     1
290
     1
176
     1
290
     1
176
     1
290
     0
176
     1
290
     0
176
     1
290
     0
176
     1
290
     0
176
     1
290
     0
176
     1
290
     0
176
     1
290
     0
176
     1
 90
       50
176
     1
 40
0.0
176
     1
 40
1.0
176
     1
 90
        0
176
     1
 62
    18
420
        0
176
     1
 90
       50
176
     1
 90
        3
176
     1
 62
     5
420
      255
176
     1
290
     0
176
     1
 90
       50
176
     1
 90
       50
176
     1
 90
       50
176
     1
290
     0
176
     1
 90
       50
176
     1
 62
   256
176
     0
 40
1.0
176
     0
 90
        2
176
     1
  1
strokes_ogs.tif
176
     1
290
     0
176
     1
 40
1.0
176
     1
 40
1.0
176
     1
  0
VISUALSTYLE
  5
A1
102
{ACAD_REACTORS
330
99
102
}
330
99
100
AcDbVisualStyle
  2
3D Hidden
 70
     6
177
     3
291
     0
 70
    58
 90
        1
176
     1
 90
        2
176
     1
 90
        2
176
     1
 90
        0
176
     1
 40
0.6
176
     1
 40
30.0
176
     1
 62
     7
420
 16777215
176
     1
 90
        2
176
     1
 90
        2
176
     1
 62
     7
176
     1
 62
   257
176
     1
 90
        2
176
     1
 90
        1
176
     1
 40
40.0
176
     1
 90
        0
176
     1
 62
   257
176
     1
 40
1.0
176
     1
 90
        1
176
     1
 90
        6
176
     1
 90
        2
176
     1
 62
     7
176
     1
 90
        3
176
     1
 90
        0
176
     1
 90
        0
176
     1
290
     0
176
     1
 90
        1
176
     1
 40
0.0
176
     1
 90
        0
176
     1
290
     0
176
     1
290
     1
176
     1
290
     1
176
     1
290
     0
176
     1
290
     0
176
     1
290
     0
176
     1
290
     0
176
     1
290
     0
176
     1
290
     0
176
     1
 90
       50
176
     1
 40
0.0
176
     1
 40
1.0
176
     1
 90
        0
176
     1
 62
    18
420
        0
176
     1
 90
       50
176
     1
 90
        3
176
     1
 62
     5
420
      255
176
     1
290
     0
176
     1
 90
       50
176
     1
 90
       50
176
     1
 90
       50
176
     1
290
     0
176
     1
 90
       50
176
     1
 62
   256
176
     0
 40
1.0
176
     0
 90
        2
176
     1
  1
strokes_ogs.tif
176
     1
290
     0
176
     1
 40
1.0
176
     1
 40
1.0
176
     1
  0
VISUALSTYLE
  5
A0
102
{ACAD_REACTORS
330
99
102
}
330
99
100
AcDbVisualStyle
  2
3dWireframe
 70
     5
177
     3
291
     0
 70
    58
 90
        0
176
     1
 90
        2
176
     1
 90
        1
176
     1
 90
        0
176
     1
 40
0.6
176
     1
 40
30.0
176
     1
 62
     7
420
 16777215
176
     1
 90
        1
176
     1
 90
        4
176
     1
 62
     7
176
     1
 62
   257
176
     1
 90
        1
176
     1
 90
        1
176
     1
 40
1.0
176
     1
 90
        0
176
     1
 62
   257
176
     1
 40
1.0
176
     1
 90
        1
176
     1
 90
        6
176
     1
 90
        2
176
     1
 62
     7
176
     1
 90
        5
176
     1
 90
        0
176
     1
 90
        0
176
     1
290
     0
176
     1
 90
        1
176
     1
 40
0.0
176
     1
 90
        0
176
     1
290
     0
176
     1
290
     1
176
     1
290
     1
176
     1
290
     0
176
     1
290
     0
176
     1
290
     0
176
     1
290
     0
176
     1
290
     0
176
     1
290
     0
176
     1
 90
       50
176
     1
 40
0.0
176
     1
 40
1.0
176
     1
 90
        0
176
     1
 62
    18
420
        0
176
     1
 90
       50
176
     1
 90
        3
176
     1
 62
     5
420
      255
176
     1
290
     0
176
     1
 90
       50
176
     1
 90
       50
176
     1
 90
       50
176
     1
290
     0
176
     1
 90
       50
176
     1
 62
   256
176
     0
 40
1.0
176
     0
 90
        2
176
     1
  1
strokes_ogs.tif
176
     1
290
     0
176
     1
 40
1.0
176
     1
 40
1.0
176
     1
  0
VISUALSTYLE
  5
9E
102
{ACAD_REACTORS
330
99
102
}
330
99
100
AcDbVisualStyle
  2
Basic
 70
     7
177
     3
291
     1
 70
    58
 90
        1
176
     1
 90
        0
176
     1
 90
        1
176
     1
 90
        0
176
     1
 40
0.6
176
     1
 40
30.0
176
     1
 62
     7
420
 16777215
176
     1
 90
        0
176
     1
 90
        4
176
     1
 62
     7
176
     1
 62
   257
176
     1
 90
        1
176
     1
 90
        1
176
     1
 40
1.0
176
     1
 90
        8
176
     1
 62
     7
176
     1
 40
1.0
176
     1
 90
        1
176
     1
 90
        6
176
     1
 90
        2
176
     1
 62
     7
176
     1
 90
        5
176
     1
 90
        0
176
     1
 90
        0
176
     1
290
     0
176
     1
 90
        1
176
     1
 40
0.0
176
     1
 90
        0
176
     1
290
     0
176
     1
290
     1
176
     1
290
     1
176
     1
290
     0
176
     1
290
     0
176
     1
290
     0
176
     1
290
     0
176
     1
290
     0
176
     1
290
     0
176
     1
 90
       50
176
     1
 40
0.0
176
     1
 40
1.0
176
     1
 90
        0
176
     1
 62
    18
420
        0
176
     1
 90
       50
176
     1
 90
        3
176
     1
 62
     5
420
      255
176
     1
290
     0
176
     1
 90
       50
176
     1
 90
       50
176
     1
 90
       50
176
     1
290
     0
176
     1
 90
       50
176
     1
 62
   256
176
     0
 40
1.0
176
     0
 90
        2
176
     1
  1
strokes_ogs.tif
176
     1
290
     0
176
     1
 40
1.0
176
     1
 40
1.0
176
     1
  0
VISUALSTYLE
  5
A5
102
{ACAD_REACTORS
330
99
102
}
330
99
100
AcDbVisualStyle
  2
Brighten
 70
    12
177
     3
291
     1
 70
    58
 90
        2
176
     1
 90
        2
176
     1
 90
        1
176
     1
 90
        0
176
     1
 40
0.6
176
     1
 40
30.0
176
     1
 62
     7
420
 16777215
176
     1
 90
        1
176
     1
 90
        4
176
     1
 62
     7
176
     1
 62
   257
176
     1
 90
        1
176
     1
 90
        1
176
     1
 40
1.0
176
     1
 90
        8
176
     1
 62
     7
176
     1
 40
1.0
176
     1
 90
        1
176
     1
 90
        6
176
     1
 90
        2
176
     1
 62
     7
176
     1
 90
        5
176
     1
 90
        0
176
     1
 90
        0
176
     1
290
     0
176
     1
 90
        1
176
     1
 40
50.0
176
     1
 90
        0
176
     1
290
     0
176
     1
290
     1
176
     1
290
     1
176
     1
290
     0
176
     1
290
     0
176
     1
290
     0
176
     1
290
     0
176
     1
290
     0
176
     1
290
     0
176
     1
 90
       50
176
     1
 40
0.0
176
     1
 40
1.0
176
     1
 90
        0
176
     1
 62
    18
420
        0
176
     1
 90
       50
176
     1
 90
        3
176
     1
 62
     5
420
      255
176
     1
290
     0
176
     1
 90
       50
176
     1
 90
       50
176
     1
 90
       50
176
     1
290
     0
176
     1
 90
       50
176
     1
 62
   256
176
     0
 40
1.0
176
     0
 90
        2
176
     1
  1
strokes_ogs.tif
176
     1
290
     0
176
     1
 40
1.0
176
     1
 40
1.0
176
     1
  0
VISUALSTYLE
  5
A9
102
{ACAD_REACTORS
330
99
102
}
330
99
100
AcDbVisualStyle
  2
ColorChange
 70
    16
177
     3
291
     1
 70
    58
 90
        2
176
     1
 90
        2
176
     1
 90
        3
176
     1
 90
        0
176
     1
 40
0.6
176
     1
 40
30.0
176
     1
 62
     8
420
  8421504
176
     1
 90
        1
176
     1
 90
        4
176
     1
 62
     7
176
     1
 62
   257
176
     1
 90
        1
176
     1
 90
        1
176
     1
 40
1.0
176
     1
 90
        8
176
     1
 62
     8
420
  8421504
176
     1
 40
1.0
176
     1
 90
        1
176
     1
 90
        6
176
     1
 90
        2
176
     1
 62
     7
176
     1
 90
        5
176
     1
 90
        0
176
     1
 90
        0
176
     1
290
     0
176
     1
 90
        1
176
     1
 40
0.0
176
     1
 90
        0
176
     1
290
     0
176
     1
290
     1
176
     1
290
     1
176
     1
290
     0
176
     1
290
     0
176
     1
290
     0
176
     1
290
     0
176
     1
290
     0
176
     1
290
     0
176
     1
 90
       50
176
     1
 40
0.0
176
     1
 40
1.0
176
     1
 90
        0
176
     1
 62
    18
420
        0
176
     1
 90
       50
176
     1
 90
        3
176
     1
 62
     5
420
      255
176
     1
290
     0
176
     1
 90
       50
176
     1
 90
       50
176
     1
 90
       50
176
     1
290
     0
176
     1
 90
       50
176
     1
 62
   256
176
     0
 40
1.0
176
     0
 90
        2
176
     1
  1
strokes_ogs.tif
176
     1
290
     0
176
     1
 40
1.0
176
     1
 40
1.0
176
     1
  0
VISUALSTYLE
  5
A2
102
{ACAD_REACTORS
330
99
102
}
330
99
100
AcDbVisualStyle
  2
Conceptual
 70
     9
177
     3
291
     0
 70
    58
 90
        3
176
     1
 90
        2
176
     1
 90
        1
176
     1
 90
        0
176
     1
 40
0.6
176
     1
 40
30.0
176
     1
 62
     7
420
 16777215
176
     1
 90
        2
176
     1
 90
        2
176
     1
 62
     7
176
     1
 62
   257
176
     1
 90
        1
176
     1
 90
        1
176
     1
 40
40.0
176
     1
 90
        8
176
     1
 62
     7
176
     1
 40
1.0
176
     1
 90
        1
176
     1
 90
        6
176
     1
 90
        2
176
     1
 62
     7
176
     1
 90
        3
176
     1
 90
        0
176
     1
 90
        0
176
     1
290
     0
176
     1
 90
        1
176
     1
 40
0.0
176
     1
 90
        0
176
     1
290
     0
176
     1
290
     1
176
     1
290
     1
176
     1
290
     0
176
     1
290
     0
176
     1
290
     0
176
     1
290
     0
176
     1
290
     0
176
     1
290
     0
176
     1
 90
       50
176
     1
 40
0.0
176
     1
 40
1.0
176
     1
 90
        0
176
     1
 62
    18
420
        0
176
     1
 90
       50
176
     1
 90
        3
176
     1
 62
     5
420
      255
176
     1
290
     0
176
     1
 90
       50
176
     1
 90
       50
176
     1
 90
       50
176
     1
290
     0
176
     1
 90
       50
176
     1
 62
   256
176
     0
 40
1.0
176
     0
 90
        2
176
     1
  1
strokes_ogs.tif
176
     1
290
     0
176
     1
 40
1.0
176
     1
 40
1.0
176
     1
  0
VISUALSTYLE
  5
A4
102
{ACAD_REACTORS
330
99
102
}
330
99
100
AcDbVisualStyle
  2
Dim
 70
    11
177
     3
291
     1
 70
    58
 90
        2
176
     1
 90
        2
176
     1
 90
        1
176
     1
 90
        0
176
     1
 40
0.6
176
     1
 40
30.0
176
     1
 62
     7
420
 16777215
176
     1
 90
        1
176
     1
 90
        4
176
     1
 62
     7
176
     1
 62
   257
176
     1
 90
        1
176
     1
 90
        1
176
     1
 40
1.0
176
     1
 90
        8
176
     1
 62
     7
176
     1
 40
1.0
176
     1
 90
        1
176
     1
 90
        6
176
     1
 90
        2
176
     1
 62
     7
176
     1
 90
        5
176
     1
 90
        0
176
     1
 90
        0
176
     1
290
     0
176
     1
 90
        1
176
     1
 40
-50.0
176
     1
 90
        0
176
     1
290
     0
176
     1
290
     1
176
     1
290
     1
176
     1
290
     0
176
     1
290
     0
176
     1
290
     0
176
     1
290
     0
176
     1
290
     0
176
     1
290
     0
176
     1
 90
       50
176
     1
 40
0.0
176
     1
 40
1.0
176
     1
 90
        0
176
     1
 62
    18
420
        0
176
     1
 90
       50
176
     1
 90
        3
176
     1
 62
     5
420
      255
176
     1
290
     0
176
     1
 90
       50
176
     1
 90
       50
176
     1
 90
       50
176
     1
290
     0
176
     1
 90
       50
176
     1
 62
   256
176
     0
 40
1.0
176
     0
 90
        2
176
     1
  1
strokes_ogs.tif
176
     1
290
     0
176
     1
 40
1.0
176
     1
 40
1.0
176
     1
  0
VISUALSTYLE
  5
5C43C
102
{ACAD_REACTORS
330
99
102
}
330
99
100
AcDbVisualStyle
  2
EdgeColorOff
 70
    22
177
     3
291
     1
 70
    58
 90
        2
176
     0
 90
        2
176
     0
 90
        0
176
     0
 90
        0
176
     0
 40
0.6
176
     0
 40
30.0
176
     0
 62
     7
420
 16777215
176
     0
 90
        1
176
     0
 90
        4
176
     0
 62
     7
176
     0
 62
   257
176
     0
 90
        1
176
     0
 90
        1
176
     0
 40
1.0
176
     0
 90
        8
176
     2
 62
     7
176
     0
 40
1.0
176
     0
 90
        1
176
     0
 90
        6
176
     0
 90
        2
176
     0
 62
     7
176
     0
 90
        5
176
     0
 90
        0
176
     0
 90
        0
176
     0
290
     0
176
     0
 90
        1
176
     0
 40
0.0
176
     0
 90
        0
176
     0
290
     0
176
     0
290
     1
176
     0
290
     1
176
     0
290
     0
176
     0
290
     0
176
     0
290
     0
176
     0
290
     0
176
     0
290
     0
176
     0
290
     0
176
     0
 90
       50
176
     0
 40
0.0
176
     0
 40
1.0
176
     0
 90
        0
176
     0
 62
    18
420
        0
176
     0
 90
       50
176
     0
 90
        3
176
     0
 62
     5
420
      255
176
     0
290
     0
176
     0
 90
       50
176
     0
 90
       50
176
     0
 90
       50
176
     0
290
     0
176
     0
 90
       50
176
     0
 62
   256
176
     0
 40
1.0
176
     0
 90
        2
176
     0
  1
strokes_ogs.tif
176
     0
290
     0
176
     0
 40
1.0
176
     0
 40
1.0
176
     0
  0
VISUALSTYLE
  5
A8
102
{ACAD_REACTORS
330
99
102
}
330
99
100
AcDbVisualStyle
  2
Facepattern
 70
    15
177
     3
291
     1
 70
    58
 90
        2
176
     1
 90
        2
176
     1
 90
        1
176
     1
 90
        0
176
     1
 40
0.6
176
     1
 40
30.0
176
     1
 62
     7
420
 16777215
176
     1
 90
        1
176
     1
 90
        4
176
     1
 62
     7
176
     1
 62
   257
176
     1
 90
        1
176
     1
 90
        1
176
     1
 40
1.0
176
     1
 90
        8
176
     1
 62
     7
176
     1
 40
1.0
176
     1
 90
        1
176
     1
 90
        6
176
     1
 90
        2
176
     1
 62
     7
176
     1
 90
        5
176
     1
 90
        0
176
     1
 90
        0
176
     1
290
     0
176
     1
 90
        1
176
     1
 40
0.0
176
     1
 90
        0
176
     1
290
     0
176
     1
290
     1
176
     1
290
     1
176
     1
290
     0
176
     1
290
     0
176
     1
290
     0
176
     1
290
     0
176
     1
290
     0
176
     1
290
     0
176
     1
 90
       50
176
     1
 40
0.0
176
     1
 40
1.0
176
     1
 90
        0
176
     1
 62
    18
420
        0
176
     1
 90
       50
176
     1
 90
        3
176
     1
 62
     5
420
      255
176
     1
290
     0
176
     1
 90
       50
176
     1
 90
       50
176
     1
 90
       50
176
     1
290
     0
176
     1
 90
       50
176
     1
 62
   256
176
     0
 40
1.0
176
     0
 90
        2
176
     1
  1
strokes_ogs.tif
176
     1
290
     0
176
     1
 40
1.0
176
     1
 40
1.0
176
     1
  0
VISUALSTYLE
  5
9A
102
{ACAD_REACTORS
330
99
102
}
330
99
100
AcDbVisualStyle
  2
Flat
 70
     0
177
     3
291
     1
 70
    58
 90
        2
176
     1
 90
        1
176
     1
 90
        1
176
     1
 90
        2
176
     1
 40
0.6
176
     1
 40
30.0
176
     1
 62
     7
420
 16777215
176
     1
 90
        0
176
     1
 90
        4
176
     1
 62
     7
176
     1
 62
   257
176
     1
 90
        1
176
     1
 90
        1
176
     1
 40
1.0
176
     1
 90
        8
176
     1
 62
     7
176
     1
 40
1.0
176
     1
 90
        1
176
     1
 90
        6
176
     1
 90
        2
176
     1
 62
     7
176
     1
 90
        5
176
     1
 90
        0
176
     1
 90
        0
176
     1
290
     0
176
     1
 90
        1
176
     1
 40
0.0
176
     1
 90
        0
176
     1
290
     0
176
     1
290
     1
176
     1
290
     1
176
     1
290
     0
176
     1
290
     0
176
     1
290
     0
176
     1
290
     0
176
     1
290
     0
176
     1
290
     0
176
     1
 90
       50
176
     1
 40
0.0
176
     1
 40
1.0
176
     1
 90
        0
176
     1
 62
    18
420
        0
176
     1
 90
       50
176
     1
 90
        3
176
     1
 62
     5
420
      255
176
     1
290
     0
176
     1
 90
       50
176
     1
 90
       50
176
     1
 90
       50
176
     1
290
     0
176
     1
 90
       50
176
     1
 62
   256
176
     0
 40
1.0
176
     0
 90
        2
176
     1
  1
strokes_ogs.tif
176
     1
290
     0
176
     1
 40
1.0
176
     1
 40
1.0
176
     1
  0
VISUALSTYLE
  5
9B
102
{ACAD_REACTORS
330
99
102
}
330
99
100
AcDbVisualStyle
  2
FlatWithEdges
 70
     1
177
     3
291
     1
 70
    58
 90
        2
176
     1
 90
        1
176
     1
 90
        1
176
     1
 90
        2
176
     1
 40
0.6
176
     1
 40
30.0
176
     1
 62
     7
420
 16777215
176
     1
 90
        1
176
     1
 90
        4
176
     1
 62
     7
176
     1
 62
   257
176
     1
 90
        1
176
     1
 90
        1
176
     1
 40
1.0
176
     1
 90
        0
176
     1
 62
   257
176
     1
 40
1.0
176
     1
 90
        1
176
     1
 90
        6
176
     1
 90
        2
176
     1
 62
     7
176
     1
 90
        5
176
     1
 90
        0
176
     1
 90
        0
176
     1
290
     0
176
     1
 90
        1
176
     1
 40
0.0
176
     1
 90
        0
176
     1
290
     0
176
     1
290
     1
176
     1
290
     1
176
     1
290
     0
176
     1
290
     0
176
     1
290
     0
176
     1
290
     0
176
     1
290
     0
176
     1
290
     0
176
     1
 90
       50
176
     1
 40
0.0
176
     1
 40
1.0
176
     1
 90
        0
176
     1
 62
    18
420
        0
176
     1
 90
       50
176
     1
 90
        3
176
     1
 62
     5
420
      255
176
     1
290
     0
176
     1
 90
       50
176
     1
 90
       50
176
     1
 90
       50
176
     1
290
     0
176
     1
 90
       50
176
     1
 62
   256
176
     0
 40
1.0
176
     0
 90
        2
176
     1
  1
strokes_ogs.tif
176
     1
290
     0
176
     1
 40
1.0
176
     1
 40
1.0
176
     1
  0
VISUALSTYLE
  5
9C
102
{ACAD_REACTORS
330
99
102
}
330
99
100
AcDbVisualStyle
  2
Gouraud
 70
     2
177
     3
291
     1
 70
    58
 90
        2
176
     1
 90
        2
176
     1
 90
        1
176
     1
 90
        2
176
     1
 40
0.6
176
     1
 40
30.0
176
     1
 62
     7
420
 16777215
176
     1
 90
        0
176
     1
 90
        4
176
     1
 62
     7
176
     1
 62
   257
176
     1
 90
        1
176
     1
 90
        1
176
     1
 40
1.0
176
     1
 90
        0
176
     1
 62
     7
176
     1
 40
1.0
176
     1
 90
        1
176
     1
 90
        6
176
     1
 90
        2
176
     1
 62
     7
176
     1
 90
        5
176
     1
 90
        0
176
     1
 90
        0
176
     1
290
     0
176
     1
 90
        1
176
     1
 40
0.0
176
     1
 90
        0
176
     1
290
     0
176
     1
290
     1
176
     1
290
     1
176
     1
290
     0
176
     1
290
     0
176
     1
290
     0
176
     1
290
     0
176
     1
290
     0
176
     1
290
     0
176
     1
 90
       50
176
     1
 40
0.0
176
     1
 40
1.0
176
     1
 90
        0
176
     1
 62
    18
420
        0
176
     1
 90
       50
176
     1
 90
        3
176
     1
 62
     5
420
      255
176
     1
290
     0
176
     1
 90
       50
176
     1
 90
       50
176
     1
 90
       50
176
     1
290
     0
176
     1
 90
       50
176
     1
 62
   256
176
     0
 40
1.0
176
     0
 90
        2
176
     1
  1
strokes_ogs.tif
176
     1
290
     0
176
     1
 40
1.0
176
     1
 40
1.0
176
     1
  0
VISUALSTYLE
  5
9D
102
{ACAD_REACTORS
330
99
102
}
330
99
100
AcDbVisualStyle
  2
GouraudWithEdges
 70
     3
177
     3
291
     1
 70
    58
 90
        2
176
     1
 90
        2
176
     1
 90
        1
176
     1
 90
        2
176
     1
 40
0.6
176
     1
 40
30.0
176
     1
 62
     7
420
 16777215
176
     1
 90
        1
176
     1
 90
        4
176
     1
 62
     7
176
     1
 62
   257
176
     1
 90
        1
176
     1
 90
        1
176
     1
 40
1.0
176
     1
 90
        0
176
     1
 62
   257
176
     1
 40
1.0
176
     1
 90
        1
176
     1
 90
        6
176
     1
 90
        2
176
     1
 62
     7
176
     1
 90
        5
176
     1
 90
        0
176
     1
 90
        0
176
     1
290
     0
176
     1
 90
        1
176
     1
 40
0.0
176
     1
 90
        0
176
     1
290
     0
176
     1
290
     1
176
     1
290
     1
176
     1
290
     0
176
     1
290
     0
176
     1
290
     0
176
     1
290
     0
176
     1
290
     0
176
     1
290
     0
176
     1
 90
       50
176
     1
 40
0.0
176
     1
 40
1.0
176
     1
 90
        0
176
     1
 62
    18
420
        0
176
     1
 90
       50
176
     1
 90
        3
176
     1
 62
     5
420
      255
176
     1
290
     0
176
     1
 90
       50
176
     1
 90
       50
176
     1
 90
       50
176
     1
290
     0
176
     1
 90
       50
176
     1
 62
   256
176
     0
 40
1.0
176
     0
 90
        2
176
     1
  1
strokes_ogs.tif
176
     1
290
     0
176
     1
 40
1.0
176
     1
 40
1.0
176
     1
  0
VISUALSTYLE
  5
5C434
102
{ACAD_REACTORS
330
99
102
}
330
99
100
AcDbVisualStyle
  2
Hidden
 70
     6
177
     3
291
     0
 70
    58
 90
        1
176
     1
 90
        2
176
     1
 90
        2
176
     1
 90
        0
176
     1
 40
0.6
176
     1
 40
30.0
176
     1
 62
     7
420
 16777215
176
     1
 90
        2
176
     1
 90
        2
176
     1
 62
     7
176
     1
 62
   257
176
     1
 90
        2
176
     1
 90
        1
176
     1
 40
40.0
176
     1
 90
        0
176
     1
 62
   257
176
     1
 40
1.0
176
     1
 90
        1
176
     1
 90
        6
176
     1
 90
        2
176
     1
 62
     7
176
     1
 90
        3
176
     1
 90
        0
176
     1
 90
        0
176
     1
290
     0
176
     1
 90
        1
176
     1
 40
0.0
176
     1
 90
        0
176
     1
290
     0
176
     1
290
     1
176
     1
290
     1
176
     1
290
     0
176
     1
290
     0
176
     1
290
     0
176
     1
290
     0
176
     1
290
     0
176
     1
290
     0
176
     1
 90
       50
176
     1
 40
0.0
176
     1
 40
1.0
176
     1
 90
        0
176
     1
 62
    18
420
        0
176
     1
 90
       50
176
     1
 90
        3
176
     1
 62
     5
420
      255
176
     1
290
     0
176
     1
 90
       50
176
     1
 90
       50
176
     1
 90
       50
176
     1
290
     0
176
     1
 90
       50
176
     1
 62
   256
176
     0
 40
1.0
176
     0
 90
        2
176
     1
  1
strokes_ogs.tif
176
     1
290
     0
176
     1
 40
1.0
176
     1
 40
1.0
176
     1
  0
VISUALSTYLE
  5
5C43A
102
{ACAD_REACTORS
330
99
102
}
330
99
100
AcDbVisualStyle
  2
JitterOff
 70
    20
177
     3
291
     1
 70
    58
 90
        2
176
     0
 90
        2
176
     0
 90
        0
176
     0
 90
        0
176
     0
 40
0.6
176
     0
 40
30.0
176
     0
 62
     7
420
 16777215
176
     0
 90
        1
176
     0
 90
        4
176
     0
 62
     7
176
     0
 62
   257
176
     0
 90
        1
176
     0
 90
        1
176
     0
 40
1.0
176
     0
 90
       10
176
     2
 62
     7
176
     0
 40
1.0
176
     0
 90
        1
176
     0
 90
        6
176
     0
 90
        2
176
     0
 62
     7
176
     0
 90
        5
176
     0
 90
        0
176
     0
 90
        0
176
     0
290
     0
176
     0
 90
        1
176
     0
 40
0.0
176
     0
 90
        0
176
     0
290
     0
176
     0
290
     1
176
     0
290
     1
176
     0
290
     0
176
     0
290
     0
176
     0
290
     0
176
     0
290
     0
176
     0
290
     0
176
     0
290
     0
176
     0
 90
       50
176
     0
 40
0.0
176
     0
 40
1.0
176
     0
 90
        0
176
     0
 62
    18
420
        0
176
     0
 90
       50
176
     0
 90
        3
176
     0
 62
     5
420
      255
176
     0
290
     0
176
     0
 90
       50
176
     0
 90
       50
176
     0
 90
       50
176
     0
290
     0
176
     0
 90
       50
176
     0
 62
   256
176
     0
 40
1.0
176
     0
 90
        2
176
     0
  1
strokes_ogs.tif
176
     0
290
     0
176
     0
 40
1.0
176
     0
 40
1.0
176
     0
  0
VISUALSTYLE
  5
A7
102
{ACAD_REACTORS
330
99
102
}
330
99
100
AcDbVisualStyle
  2
Linepattern
 70
    14
177
     3
291
     1
 70
    58
 90
        2
176
     1
 90
        2
176
     1
 90
        1
176
     1
 90
        0
176
     1
 40
0.6
176
     1
 40
30.0
176
     1
 62
     7
420
 16777215
176
     1
 90
        1
176
     1
 90
        4
176
     1
 62
     7
176
     1
 62
   257
176
     1
 90
        7
176
     1
 90
        7
176
     1
 40
1.0
176
     1
 90
        8
176
     1
 62
     7
176
     1
 40
1.0
176
     1
 90
        1
176
     1
 90
        6
176
     1
 90
        2
176
     1
 62
     7
176
     1
 90
        5
176
     1
 90
        0
176
     1
 90
        0
176
     1
290
     0
176
     1
 90
        1
176
     1
 40
0.0
176
     1
 90
        0
176
     1
290
     0
176
     1
290
     1
176
     1
290
     1
176
     1
290
     0
176
     1
290
     0
176
     1
290
     0
176
     1
290
     0
176
     1
290
     0
176
     1
290
     0
176
     1
 90
       50
176
     1
 40
0.0
176
     1
 40
1.0
176
     1
 90
        0
176
     1
 62
    18
420
        0
176
     1
 90
       50
176
     1
 90
        3
176
     1
 62
     5
420
      255
176
     1
290
     0
176
     1
 90
       50
176
     1
 90
       50
176
     1
 90
       50
176
     1
290
     0
176
     1
 90
       50
176
     1
 62
   256
176
     0
 40
1.0
176
     0
 90
        2
176
     1
  1
strokes_ogs.tif
176
     1
290
     0
176
     1
 40
1.0
176
     1
 40
1.0
176
     1
  0
VISUALSTYLE
  5
5C43B
102
{ACAD_REACTORS
330
99
102
}
330
99
100
AcDbVisualStyle
  2
OverhangOff
 70
    21
177
     3
291
     1
 70
    58
 90
        2
176
     0
 90
        2
176
     0
 90
        0
176
     0
 90
        0
176
     0
 40
0.6
176
     0
 40
30.0
176
     0
 62
     7
420
 16777215
176
     0
 90
        1
176
     0
 90
        4
176
     0
 62
     7
176
     0
 62
   257
176
     0
 90
        1
176
     0
 90
        1
176
     0
 40
1.0
176
     0
 90
        9
176
     2
 62
     7
176
     0
 40
1.0
176
     0
 90
        1
176
     0
 90
        6
176
     0
 90
        2
176
     0
 62
     7
176
     0
 90
        5
176
     0
 90
        0
176
     0
 90
        0
176
     0
290
     0
176
     0
 90
        1
176
     0
 40
0.0
176
     0
 90
        0
176
     0
290
     0
176
     0
290
     1
176
     0
290
     1
176
     0
290
     0
176
     0
290
     0
176
     0
290
     0
176
     0
290
     0
176
     0
290
     0
176
     0
290
     0
176
     0
 90
       50
176
     0
 40
0.0
176
     0
 40
1.0
176
     0
 90
        0
176
     0
 62
    18
420
        0
176
     0
 90
       50
176
     0
 90
        3
176
     0
 62
     5
420
      255
176
     0
290
     0
176
     0
 90
       50
176
     0
 90
       50
176
     0
 90
       50
176
     0
290
     0
176
     0
 90
       50
176
     0
 62
   256
176
     0
 40
1.0
176
     0
 90
        2
176
     0
  1
strokes_ogs.tif
176
     0
290
     0
176
     0
 40
1.0
176
     0
 40
1.0
176
     0
  0
VISUALSTYLE
  5
A3
102
{ACAD_REACTORS
330
99
102
}
330
99
100
AcDbVisualStyle
  2
Realistic
 70
     8
177
     3
291
     0
 70
    58
 90
        2
176
     1
 90
        2
176
     1
 90
        1
176
     1
 90
        0
176
     1
 40
0.6
176
     1
 40
30.0
176
     1
 62
     7
420
 16777215
176
     1
 90
        1
176
     1
 90
        0
176
     1
 62
     7
176
     1
 62
   257
176
     1
 90
        1
176
     1
 90
        1
176
     1
 40
1.0
176
     1
 90
        8
176
     1
 62
     8
420
  7895160
176
     1
 40
1.0
176
     1
 90
        1
176
     1
 90
        6
176
     1
 90
        2
176
     1
 62
     7
176
     1
 90
        5
176
     1
 90
        0
176
     1
 90
        0
176
     1
290
     0
176
     1
 90
       13
176
     1
 40
0.0
176
     1
 90
        0
176
     1
290
     0
176
     1
290
     1
176
     1
290
     1
176
     1
290
     0
176
     1
290
     0
176
     1
290
     0
176
     1
290
     0
176
     1
290
     0
176
     1
290
     0
176
     1
 90
       50
176
     1
 40
0.0
176
     1
 40
1.0
176
     1
 90
        0
176
     1
 62
    18
420
        0
176
     1
 90
       50
176
     1
 90
        3
176
     1
 62
     5
420
      255
176
     1
290
     0
176
     1
 90
       50
176
     1
 90
       50
176
     1
 90
       50
176
     1
290
     0
176
     1
 90
       50
176
     1
 62
   256
176
     0
 40
1.0
176
     0
 90
        2
176
     1
  1
strokes_ogs.tif
176
     1
290
     0
176
     1
 40
1.0
176
     1
 40
1.0
176
     1
  0
VISUALSTYLE
  5
5C439
102
{ACAD_REACTORS
330
99
102
}
330
99
100
AcDbVisualStyle
  2
Shaded
 70
    27
177
     3
291
     0
 70
    58
 90
        2
176
     1
 90
        2
176
     1
 90
        1
176
     1
 90
        2
176
     1
 40
0.6
176
     1
 40
30.0
176
     1
 62
     7
420
 16777215
176
     1
 90
        0
176
     1
 90
        4
176
     1
 62
     7
176
     1
 62
   257
176
     1
 90
        1
176
     1
 90
        1
176
     1
 40
1.0
176
     1
 90
        8
176
     1
 62
   257
176
     1
 40
1.0
176
     1
 90
        1
176
     1
 90
        6
176
     1
 90
        2
176
     1
 62
     8
420
  7895160
176
     1
 90
        3
176
     1
 90
        0
176
     1
 90
        0
176
     1
290
     0
176
     1
 90
        5
176
     1
 40
0.0
176
     1
 90
        0
176
     1
290
     0
176
     1
290
     1
176
     1
290
     1
176
     1
290
     0
176
     1
290
     0
176
     1
290
     0
176
     1
290
     0
176
     1
290
     0
176
     1
290
     0
176
     1
 90
       50
176
     1
 40
0.0
176
     1
 40
1.0
176
     1
 90
        0
176
     1
 62
    18
420
        0
176
     1
 90
       50
176
     1
 90
        3
176
     1
 62
     5
420
      255
176
     1
290
     0
176
     1
 90
       50
176
     1
 90
       50
176
     1
 90
       50
176
     1
290
     0
176
     1
 90
       50
176
     1
 62
   256
176
     0
 40
1.0
176
     0
 90
        2
176
     1
  1
strokes_ogs.tif
176
     1
290
     0
176
     1
 40
1.0
176
     1
 40
1.0
176
     1
  0
VISUALSTYLE
  5
5C438
102
{ACAD_REACTORS
330
99
102
}
330
99
100
AcDbVisualStyle
  2
Shaded with edges
 70
    26
177
     3
291
     0
 70
    58
 90
        2
176
     1
 90
        2
176
     1
 90
        1
176
     1
 90
        2
176
     1
 40
0.6
176
     1
 40
30.0
176
     1
 62
     7
420
 16777215
176
     1
 90
        1
176
     1
 90
       10
176
     1
 62
     7
176
     1
 62
   257
176
     1
 90
        2
176
     1
 90
        1
176
     1
 40
1.0
176
     1
 90
        8
176
     1
 62
   257
176
     1
 40
1.0
176
     1
 90
        1
176
     1
 90
        6
176
     1
 90
        2
176
     1
 62
     7
176
     1
 90
        3
176
     1
 90
        0
176
     1
 90
        0
176
     1
290
     0
176
     1
 90
        5
176
     1
 40
0.0
176
     1
 90
        0
176
     1
290
     0
176
     1
290
     1
176
     1
290
     1
176
     1
290
     0
176
     1
290
     0
176
     1
290
     0
176
     1
290
     0
176
     1
290
     0
176
     1
290
     0
176
     1
 90
       50
176
     1
 40
0.0
176
     1
 40
1.0
176
     1
 90
        0
176
     1
 62
    18
420
        0
176
     1
 90
       50
176
     1
 90
        3
176
     1
 62
     5
420
      255
176
     1
290
     0
176
     1
 90
       50
176
     1
 90
       50
176
     1
 90
       50
176
     1
290
     0
176
     1
 90
       50
176
     1
 62
   256
176
     0
 40
1.0
176
     0
 90
        2
176
     1
  1
strokes_ogs.tif
176
     1
290
     0
176
     1
 40
1.0
176
     1
 40
1.0
176
     1
  0
VISUALSTYLE
  5
5C435
102
{ACAD_REACTORS
330
99
102
}
330
99
100
AcDbVisualStyle
  2
Shades of Gray
 70
    23
177
     3
291
     0
 70
    58
 90
        2
176
     1
 90
        2
176
     1
 90
        3
176
     1
 90
        0
176
     1
 40
0.6
176
     1
 40
30.0
176
     1
 62
     7
420
 16777215
176
     1
 90
        2
176
     1
 90
        2
176
     1
 62
     7
176
     1
 62
     7
176
     1
 90
        1
176
     1
 90
        1
176
     1
 40
40.0
176
     1
 90
        8
176
     1
 62
     7
176
     1
 40
1.0
176
     1
 90
        1
176
     1
 90
        6
176
     1
 90
        2
176
     1
 62
     7
176
     1
 90
        3
176
     1
 90
        0
176
     1
 90
        0
176
     1
290
     0
176
     1
 90
        1
176
     1
 40
0.0
176
     1
 90
        0
176
     1
290
     0
176
     1
290
     1
176
     1
290
     1
176
     1
290
     0
176
     1
290
     0
176
     1
290
     0
176
     1
290
     0
176
     1
290
     0
176
     1
290
     0
176
     1
 90
       50
176
     1
 40
0.0
176
     1
 40
1.0
176
     1
 90
        0
176
     1
 62
    18
420
        0
176
     1
 90
       50
176
     1
 90
        3
176
     1
 62
     5
420
      255
176
     1
290
     0
176
     1
 90
       50
176
     1
 90
       50
176
     1
 90
       50
176
     1
290
     0
176
     1
 90
       50
176
     1
 62
   256
176
     0
 40
1.0
176
     0
 90
        2
176
     1
  1
strokes_ogs.tif
176
     1
290
     0
176
     1
 40
1.0
176
     1
 40
1.0
176
     1
  0
VISUALSTYLE
  5
5C436
102
{ACAD_REACTORS
330
99
102
}
330
99
100
AcDbVisualStyle
  2
Sketchy
 70
    24
177
     3
291
     0
 70
    58
 90
        1
176
     1
 90
        2
176
     1
 90
        2
176
     1
 90
        0
176
     1
 40
0.6
176
     1
 40
30.0
176
     1
 62
     7
420
 16777215
176
     1
 90
        2
176
     1
 90
        2
176
     1
 62
     7
176
     1
 62
     7
176
     1
 90
        1
176
     1
 90
        1
176
     1
 40
40.0
176
     1
 90
       11
176
     1
 62
     7
176
     1
 40
1.0
176
     1
 90
        1
176
     1
 90
        6
176
     1
 90
        2
176
     1
 62
     7
176
     1
 90
        6
176
     1
 90
        0
176
     1
 90
        0
176
     1
290
     0
176
     1
 90
        1
176
     1
 40
0.0
176
     1
 90
        0
176
     1
290
     0
176
     1
290
     1
176
     1
290
     1
176
     1
290
     0
176
     1
290
     0
176
     1
290
     0
176
     1
290
     0
176
     1
290
     0
176
     1
290
     0
176
     1
 90
       50
176
     1
 40
0.0
176
     1
 40
1.0
176
     1
 90
        0
176
     1
 62
    18
420
        0
176
     1
 90
       50
176
     1
 90
        3
176
     1
 62
     5
420
      255
176
     1
290
     0
176
     1
 90
       50
176
     1
 90
       50
176
     1
 90
       50
176
     1
290
     0
176
     1
 90
       50
176
     1
 62
   256
176
     0
 40
1.0
176
     0
 90
        2
176
     1
  1
strokes_ogs.tif
176
     1
290
     0
176
     1
 40
1.0
176
     1
 40
1.0
176
     1
  0
VISUALSTYLE
  5
A6
102
{ACAD_REACTORS
330
99
102
}
330
99
100
AcDbVisualStyle
  2
Thicken
 70
    13
177
     3
291
     1
 70
    58
 90
        2
176
     1
 90
        2
176
     1
 90
        1
176
     1
 90
        0
176
     1
 40
0.6
176
     1
 40
30.0
176
     1
 62
     7
420
 16777215
176
     1
 90
        1
176
     1
 90
        4
176
     1
 62
     7
176
     1
 62
   257
176
     1
 90
        1
176
     1
 90
        1
176
     1
 40
1.0
176
     1
 90
       12
176
     1
 62
     7
176
     1
 40
1.0
176
     1
 90
        1
176
     1
 90
        6
176
     1
 90
        2
176
     1
 62
     7
176
     1
 90
        5
176
     1
 90
        0
176
     1
 90
        0
176
     1
290
     0
176
     1
 90
        1
176
     1
 40
0.0
176
     1
 90
        0
176
     1
290
     0
176
     1
290
     1
176
     1
290
     1
176
     1
290
     0
176
     1
290
     0
176
     1
290
     0
176
     1
290
     0
176
     1
290
     0
176
     1
290
     0
176
     1
 90
       50
176
     1
 40
0.0
176
     1
 40
1.0
176
     1
 90
        0
176
     1
 62
    18
420
        0
176
     1
 90
       50
176
     1
 90
        3
176
     1
 62
     5
420
      255
176
     1
290
     0
176
     1
 90
       50
176
     1
 90
       50
176
     1
 90
       50
176
     1
290
     0
176
     1
 90
       50
176
     1
 62
   256
176
     0
 40
1.0
176
     0
 90
        2
176
     1
  1
strokes_ogs.tif
176
     1
290
     0
176
     1
 40
1.0
176
     1
 40
1.0
176
     1
  0
VISUALSTYLE
  5
5C433
102
{ACAD_REACTORS
330
99
102
}
330
99
100
AcDbVisualStyle
  2
Wireframe
 70
     5
177
     3
291
     0
 70
    58
 90
        0
176
     1
 90
        2
176
     1
 90
        0
176
     1
 90
        0
176
     1
 40
0.6
176
     1
 40
30.0
176
     1
 62
     7
420
 16777215
176
     1
 90
        1
176
     1
 90
        4
176
     1
 62
     7
176
     1
 62
   257
176
     1
 90
        1
176
     1
 90
        1
176
     1
 40
1.0
176
     1
 90
        0
176
     1
 62
   257
176
     1
 40
1.0
176
     1
 90
        1
176
     1
 90
        6
176
     1
 90
        2
176
     1
 62
     7
176
     1
 90
        3
176
     1
 90
        0
176
     1
 90
        0
176
     1
290
     0
176
     1
 90
        1
176
     1
 40
0.0
176
     1
 90
        0
176
     1
290
     0
176
     1
290
     1
176
     1
290
     1
176
     1
290
     0
176
     1
290
     0
176
     1
290
     0
176
     1
290
     0
176
     1
290
     0
176
     1
290
     0
176
     1
 90
       50
176
     1
 40
0.0
176
     1
 40
1.0
176
     1
 90
        0
176
     1
 62
    18
420
        0
176
     1
 90
       50
176
     1
 90
        3
176
     1
 62
     5
420
      255
176
     1
290
     0
176
     1
 90
       50
176
     1
 90
       50
176
     1
 90
       50
176
     1
290
     0
176
     1
 90
       50
176
     1
 62
   256
176
     0
 40
1.0
176
     0
 90
        2
176
     1
  1
strokes_ogs.tif
176
     1
290
     0
176
     1
 40
1.0
176
     1
 40
1.0
176
     1
  0
VISUALSTYLE
  5
5C437
102
{ACAD_REACTORS
330
99
102
}
330
99
100
AcDbVisualStyle
  2
X-Ray
 70
    25
177
     3
291
     0
 70
    58
 90
        2
176
     1
 90
        2
176
     1
 90
        1
176
     1
 90
        1
176
     1
 40
0.5
176
     1
 40
30.0
176
     1
 62
     7
420
 16777215
176
     1
 90
        1
176
     1
 90
        0
176
     1
 62
     7
176
     1
 62
   257
176
     1
 90
        1
176
     1
 90
        1
176
     1
 40
1.0
176
     1
 90
        8
176
     1
 62
     7
176
     1
 40
1.0
176
     1
 90
        1
176
     1
 90
        6
176
     1
 90
        2
176
     1
 62
     7
176
     1
 90
        3
176
     1
 90
        0
176
     1
 90
        0
176
     1
290
     0
176
     1
 90
       13
176
     1
 40
0.0
176
     1
 90
        0
176
     1
290
     0
176
     1
290
     1
176
     1
290
     1
176
     1
290
     0
176
     1
290
     0
176
     1
290
     0
176
     1
290
     0
176
     1
290
     0
176
     1
290
     0
176
     1
 90
       50
176
     1
 40
0.0
176
     1
 40
1.0
176
     1
 90
        0
176
     1
 62
    18
420
        0
176
     1
 90
       50
176
     1
 90
        3
176
     1
 62
     5
420
      255
176
     1
290
     0
176
     1
 90
       50
176
     1
 90
       50
176
     1
 90
       50
176
     1
290
     0
176
     1
 90
       50
176
     1
 62
   256
176
     0
 40
1.0
176
     0
 90
        2
176
     1
  1
strokes_ogs.tif
176
     1
290
     0
176
     1
 40
1.0
176
     1
 40
1.0
176
     1
  0
DICTIONARY
  5
5C6BF
102
{ACAD_REACTORS
330
5C6BE
102
}
330
5C6BE
100
AcDbDictionary
280
     1
281
     1
  3
DefaultStandard
360
9C879
  3
Standards
360
5C6C0
  0
DICTIONARYVAR
  5
B5D
102
{ACAD_REACTORS
330
66
102
}
330
66
100
DictionaryVariables
280
     0
  1
1:1
  0
DICTIONARYVAR
  5
B5C
102
{ACAD_REACTORS
330
66
102
}
330
66
100
DictionaryVariables
280
     0
  1
STANDARD
  0
DICTIONARYVAR
  5
89
102
{ACAD_REACTORS
330
66
102
}
330
66
100
DictionaryVariables
280
     0
  1
STANDARD
  0
DICTIONARYVAR
  5
66F55
102
{ACAD_REACTORS
330
66
102
}
330
66
100
DictionaryVariables
280
     0
  1
Imperial24
  0
DICTIONARYVAR
  5
66F56
102
{ACAD_REACTORS
330
66
102
}
330
66
100
DictionaryVariables
280
     0
  1
Imperial24
  0
DICTIONARYVAR
  5
67
102
{ACAD_REACTORS
330
66
102
}
330
66
100
DictionaryVariables
280
     0
  1
2
  0
DICTIONARYVAR
  5
6B
102
{ACAD_REACTORS
330
66
102
}
330
66
100
DictionaryVariables
280
     0
  1
1
  0
DICTIONARYVAR
  5
9D9A7
102
{ACAD_REACTORS
330
66
102
}
330
66
100
DictionaryVariables
280
     0
  1
BYLAYER
  0
DICTIONARYVAR
  5
9D9A6
102
{ACAD_REACTORS
330
66
102
}
330
66
100
DictionaryVariables
280
     0
  1
ByLayer
  0
DICTIONARYVAR
  5
25751
102
{ACAD_REACTORS
330
66
102
}
330
66
100
DictionaryVariables
280
     0
  1
1
  0
DICTIONARYVAR
  5
25752
102
{ACAD_REACTORS
330
66
102
}
330
66
100
DictionaryVariables
280
     0
  1
15
  0
DICTIONARYVAR
  5
F79
102
{ACAD_REACTORS
330
66
102
}
330
66
100
DictionaryVariables
280
     0
  1
0
  0
DICTIONARYVAR
  5
F78
102
{ACAD_REACTORS
330
66
102
}
330
66
100
DictionaryVariables
280
     0
  1
0
  0
DICTIONARY
  5
A21DF
330
5C440
100
AcDbDictionary
280
     1
281
     1
  3
ACAD_XREC_ROUNDTRIP
360
AF40E
  0
DICTIONARY
  5
66EB6
330
22
100
AcDbDictionary
280
     1
281
     1
  0
XRECORD
  5
A15E7
102
{ACAD_REACTORS
330
A15E6
102
}
330
A15E6
100
AcDbXrecord
280
     1
 70
     2
 71
     3
 72
     0
  0
DICTIONARY
  5
A21DD
330
5C43E
100
AcDbDictionary
280
     1
281
     1
  3
ACAD_XREC_ROUNDTRIP
360
AF40D
  0
DICTIONARY
  5
B4E
330
87
100
AcDbDictionary
280
     1
281
     1
  3
ACAD_ROUNDTRIP_2008_TABLESTYLE_CELLSTYLEMAP
360
AF40C
  0
XRECORD
  5
9C879
102
{ACAD_REACTORS
330
5C6BF
102
}
330
5C6BF
100
AcDbXrecord
280
     1
1000
AIA Version 3
  0
BINRECORD
  5
5C6C0
102
{ACAD_REACTORS
330
5C6BF
102
}
330
5C6BF
100
AcAecBinRecord
 90
        0
 91
    19403
 70
     0
310
0100FFFEFF0D4100490041002000560065007200730069006F006E00200033000500FFFF01001C004163416563556B4C6179657244657363726970746976654669656C64FFFEFF154400690073006300690070006C0069006E0065002000440065007300690067006E00610074006F0072000102000000007B333637354541
310
46100100002100000070BA406CD0EA76040B00FFFEFF001500FFFEFF01520002000000FFFEFF085200650073006F0075007200630065000700FFFEFF01410002000000FFFEFF165200650073006F00750072006300650020004100720063006800690074006500630074007500720061006C00000000000000FFFEFF014D00
310
02000000FFFEFF135200650073006F00750072006300650020004D0065006300680061006E006900630061006C00000000000000FFFEFF014B0002000000FFFEFF175200650073006F007500720063006500200028005500730065007200200044006500660069006E00650064002900000000000000FFFEFF014A00020000
310
00FFFEFF175200650073006F007500720063006500200028005500730065007200200044006500660069006E00650064002900000000000000FFFEFF01450002000000FFFEFF135200650073006F007500720063006500200045006C0065006300740072006900630061006C00000000000000FFFEFF01430002000000FFFE
310
FF0E5200650073006F007500720063006500200043006900760069006C00000000000000FFFEFF01530002000000FFFEFF135200650073006F00750072006300650020005300740072007500630074007500720061006C0000000000000000000000FFFEFF01410002000000FFFEFF0D410072006300680069007400650063
310
0074007500720061006C000A00FFFEFF01500002000000FFFEFF144100720063006800690074006500630074007500720061006C00200050006100760069006E006700000000000000FFFEFF014B0002000000FFFEFF1C4100720063006800690074006500630074007500720061006C002000280055007300650072002000
310
44006500660069006E00650064002900000000000000FFFEFF014A0002000000FFFEFF1C4100720063006800690074006500630074007500720061006C00200028005500730065007200200044006500660069006E00650064002900000000000000FFFEFF01490002000000FFFEFF16410072006300680069007400650063
310
0074007500720061006C00200049006E0074006500720069006F007200000000000000FFFEFF01470002000000FFFEFF164100720063006800690074006500630074007500720061006C00200047007200610070006800690063007300000000000000FFFEFF01460002000000FFFEFF164100720063006800690074006500
310
630074007500720061006C002000460069006E0069007300680065007300000000000000FFFEFF01450002000000FFFEFF164100720063006800690074006500630074007500720061006C00200045006C0065006D0065006E0074007300000000000000FFFEFF01440002000000FFFEFF1841007200630068006900740065
310
00630074007500720061006C002000440065006D006F006C006900740069006F006E00000000000000FFFEFF01540002000000FFFEFF1C4100720063006800690074006500630074007500720061006C0020005400720061006E00730070006F00720074006100740069006F006E00000000000000FFFEFF01530002000000
310
FFFEFF124100720063006800690074006500630074007500720061006C002000530069007400650000000000000001000000FFFEFF01510002000000FFFEFF09450071007500690070006D0065006E0074001100FFFEFF01410002000000FFFEFF124100740068006C0065007400690063002000450071007500690070006D
310
0065006E007400000000000000FFFEFF01520002000000FFFEFF10520065007400610069006C002000450071007500690070006D0065006E007400000000000000FFFEFF01500002000000FFFEFF155000610072006B0069006E00670020004C006F0074002000450071007500690070006D0065006E007400000000000000
310
FFFEFF014D0002000000FFFEFF154D00610069006E00740065006E0061006E00630065002000450071007500690070006D0065006E007400000000000000FFFEFF014C0002000000FFFEFF144C00610062006F007200610074006F00720079002000450071007500690070006D0065006E007400000000000000FFFEFF014B
310
0002000000FFFEFF18450071007500690070006D0065006E007400200028005500730065007200200044006500660069006E00650064002900000000000000FFFEFF014A0002000000FFFEFF18450071007500690070006D0065006E007400200028005500730065007200200044006500660069006E006500640029000000
310
00000000FFFEFF01480002000000FFFEFF1248006F00730070006900740061006C002000450071007500690070006D0065006E007400000000000000FFFEFF01590002000000FFFEFF12530065006300750072006900740079002000450071007500690070006D0065006E007400000000000000FFFEFF01460002000000FF
310
FEFF1646006F006F006400200053006500720076006900630065002000450071007500690070006D0065006E007400000000000000FFFEFF01450002000000FFFEFF1545006400750063006100740069006F006E0061006C002000450071007500690070006D0065006E007400000000000000FFFEFF01560002000000FFFE
310
FF1C56006900640065006F002F00500068006F0074006F0067007200610070006800690063002000450071007500690070006D0065006E007400000000000000FFFEFF01440002000000FFFEFF1344006500740065006E00740069006F006E002000450071007500690070006D0065006E007400000000000000FFFEFF0143
310
0002000000FFFEFF16440072007900200043006C00650061006E0069006E0067002000450071007500690070006D0065006E007400000000000000FFFEFF01540002000000FFFEFF145400680065006100740072006900630061006C002000450071007500690070006D0065006E007400000000000000FFFEFF0142000200
310
0000FFFEFF0E420061006E006B002000450071007500690070006D0065006E007400000000000000FFFEFF01530002000000FFFEFF0E53006900740065002000450071007500690070006D0065006E00740000000000000000000000FFFEFF01500002000000FFFEFF0850006C0075006D00620069006E0067000600FFFEFF
310
01510002000000FFFEFF1250006C0075006D00620069006E0067002000450071007500690070006D0065006E007400000000000000FFFEFF01500002000000FFFEFF0F50006C0075006D00620069006E006700200050006900700069006E006700000000000000FFFEFF014B0002000000FFFEFF1750006C0075006D006200
310
69006E006700200028005500730065007200200044006500660069006E00650064002900000000000000FFFEFF014A0002000000FFFEFF1750006C0075006D00620069006E006700200028005500730065007200200044006500660069006E00650064002900000000000000FFFEFF01440002000000FFFEFF1350006C0075
310
006D00620069006E0067002000440065006D006F006C006900740069006F006E00000000000000FFFEFF01530002000000FFFEFF0D50006C0075006D00620069006E0067002000530069007400650000000000000000000000FFFEFF014F0002000000FFFEFF0A4F007000650072006100740069006F006E0073000200FFFE
310
FF014B0002000000FFFEFF194F007000650072006100740069006F006E007300200028005500730065007200200044006500660069006E00650064002900000000000000FFFEFF014A0002000000FFFEFF194F007000650072006100740069006F006E007300200028005500730065007200200044006500660069006E0065
310
006400290000000000000000000000FFFEFF014D0002000000FFFEFF0A4D0065006300680061006E006900630061006C000700FFFEFF01500002000000FFFEFF114D0065006300680061006E006900630061006C00200050006900700069006E006700000000000000FFFEFF014B0002000000FFFEFF194D00650063006800
310
61006E006900630061006C00200028005500730065007200200044006500660069006E00650064002900000000000000FFFEFF014A0002000000FFFEFF194D0065006300680061006E006900630061006C00200028005500730065007200200044006500660069006E00650064002900000000000000FFFEFF014900020000
310
00FFFEFF1A4D0065006300680061006E006900630061006C00200049006E0073007400720075006D0065006E0074006100740069006F006E00000000000000FFFEFF01480002000000FFFEFF0F4D0065006300680061006E006900630061006C0020004800560041004300000000000000FFFEFF01440002000000FFFEFF15
310
4D0065006300680061006E006900630061006C002000440065006D006F006C006900740069006F006E00000000000000FFFEFF01530002000000FFFEFF0F4D0065006300680061006E006900630061006C002000530069007400650000000000000000000000FFFEFF014C0002000000FFFEFF094C0061006E006400730063
310
006100700065000500FFFEFF01500002000000FFFEFF124C0061006E00640073006300610070006500200050006C0061006E00740069006E006700000000000000FFFEFF014B0002000000FFFEFF184C0061006E00640073006300610070006500200028005500730065007200200044006500660069006E00650064002900
310
000000000000FFFEFF014A0002000000FFFEFF184C0061006E00640073006300610070006500200028005500730065007200200044006500660069006E00650064002900000000000000FFFEFF01490002000000FFFEFF144C0061006E006400730063006100700065002000490072007200690067006100740069006F006E
310
00000000000000FFFEFF01440002000000FFFEFF144C0061006E006400730063006100700065002000440065006D006F006C006900740069006F006E0000000000000000000000FFFEFF015A0002000000FFFEFF1A43006F006E00740072006100630074006F00720020002F002000530068006F0070002000440072006100
310
770069006E00670073000200FFFEFF014B0002000000FFFEFF2943006F006E00740072006100630074006F00720020002F002000530068006F0070002000440072006100770069006E0067007300200028005500730065007200200044006500660069006E00650064002900000000000000FFFEFF014A0002000000FFFEFF
310
2943006F006E00740072006100630074006F00720020002F002000530068006F0070002000440072006100770069006E0067007300200028005500730065007200200044006500660069006E0065006400290000000000000000000000FFFEFF01490002000000FFFEFF0949006E0074006500720069006F00720073000600
310
FFFEFF014E0002000000FFFEFF0F49006E0074006500720069006F0072002000440065007300690067006E00000000000000FFFEFF014B0002000000FFFEFF1849006E0074006500720069006F0072007300200028005500730065007200200044006500660069006E00650064002900000000000000FFFEFF014A00020000
310
00FFFEFF1849006E0074006500720069006F0072007300200028005500730065007200200044006500660069006E00650064002900000000000000FFFEFF01470002000000FFFEFF1249006E0074006500720069006F0072007300200047007200610070006800690063007300000000000000FFFEFF01460002000000FFFE
310
FF1149006E0074006500720069006F0072002000460069006E0069007300680065007300000000000000FFFEFF01440002000000FFFEFF1349006E0074006500720069006F0072002000440065006D006F006C006900740069006F006E0000000000000000000000FFFEFF01480002000000FFFEFF13480061007A00610072
310
0064006F007500730020004D006100740065007200690061006C0073000700FFFEFF01410002000000FFFEFF084100730062006500730074006F007300000000000000FFFEFF01520002000000FFFEFF0C5200650066007200690067006500720061006E0074007300000000000000FFFEFF01500002000000FFFEFF035000
310
43004200000000000000FFFEFF014C0002000000FFFEFF044C00650061006400000000000000FFFEFF014B0002000000FFFEFF22480061007A006100720064006F007500730020004D006100740065007200690061006C007300200028005500730065007200200044006500660069006E00650064002900000000000000FF
310
FEFF014A0002000000FFFEFF22480061007A006100720064006F007500730020004D006100740065007200690061006C007300200028005500730065007200200044006500660069006E00650064002900000000000000FFFEFF01430002000000FFFEFF094300680065006D006900630061006C0073000000000000000000
310
0000FFFEFF01580002000000FFFEFF114F00740068006500720020004400690073006300690070006C0069006E00650073000200FFFEFF014B0002000000FFFEFF204F00740068006500720020004400690073006300690070006C0069006E0065007300200028005500730065007200200044006500660069006E00650064
310
002900000000000000FFFEFF014A0002000000FFFEFF204F00740068006500720020004400690073006300690070006C0069006E0065007300200028005500730065007200200044006500660069006E0065006400290000000000000000000000FFFEFF01470002000000FFFEFF07470065006E006500720061006C000500
310
FFFEFF01520002000000FFFEFF10470065006E006500720061006C0020005200650073006F007500720063006500000000000000FFFEFF014B0002000000FFFEFF16470065006E006500720061006C00200028005500730065007200200044006500660069006E00650064002900000000000000FFFEFF014A0002000000FF
310
FEFF16470065006E006500720061006C00200028005500730065007200200044006500660069006E00650064002900000000000000FFFEFF01490002000000FFFEFF13470065006E006500720061006C00200049006E0066006F0072006D006100740069006F006E00000000000000FFFEFF01430002000000FFFEFF134700
310
65006E006500720061006C00200043006F006E0074007200610063007400750061006C0000000000000000000000FFFEFF01460002000000FFFEFF0F46006900720065002000500072006F00740065006300740069006F006E000400FFFEFF01410002000000FFFEFF18460069007200650020004400650074006500630074
310
0069006F006E00200061006E006400200041006C00610072006D00000000000000FFFEFF014B0002000000FFFEFF134600690072006500200028005500730065007200200044006500660069006E00650064002900000000000000FFFEFF014A0002000000FFFEFF1346006900720065002000280055007300650072002000
310
44006500660069006E00650064002900000000000000FFFEFF01530002000000FFFEFF10460069007200650020005300750070007000720065007300730069006F006E0000000000000000000000FFFEFF01570002000000FFFEFF0B43006900760069006C00200057006F0072006B0073000200FFFEFF014B0002000000FF
310
FEFF1A43006900760069006C00200057006F0072006B007300200028005500730065007200200044006500660069006E00650064002900000000000000FFFEFF014A0002000000FFFEFF1A43006900760069006C00200057006F0072006B007300200028005500730065007200200044006500660069006E00650064002900
310
00000000000000000000FFFEFF01450002000000FFFEFF0A45006C0065006300740072006900630061006C000900FFFEFF01500002000000FFFEFF1045006C0065006300740072006900630061006C00200050006F00770065007200000000000000FFFEFF014C0002000000FFFEFF1345006C006500630074007200690063
310
0061006C0020004C00690067006800740069006E006700000000000000FFFEFF014B0002000000FFFEFF1945006C0065006300740072006900630061006C00200028005500730065007200200044006500660069006E00650064002900000000000000FFFEFF014A0002000000FFFEFF1945006C0065006300740072006900
310
630061006C00200028005500730065007200200044006500660069006E00650064002900000000000000FFFEFF01490002000000FFFEFF1A45006C0065006300740072006900630061006C00200049006E0073007400720075006D0065006E0074006100740069006F006E00000000000000FFFEFF01590002000000FFFEFF
310
1C45006C0065006300740072006900630061006C00200041007500780069006C0069006100720079002000530079007300740065006D007300000000000000FFFEFF01440002000000FFFEFF1545006C0065006300740072006900630061006C002000440065006D006F006C006900740069006F006E00000000000000FFFE
310
FF01540002000000FFFEFF1D45006C0065006300740072006900630061006C002000540065006C00650063006F006D006D0075006E00690063006100740069006F006E007300000000000000FFFEFF01530002000000FFFEFF0F45006C0065006300740072006900630061006C002000530069007400650000000000000000
310
000000FFFEFF01560002000000FFFEFF1053007500720076006500790020002F0020004D0061007000700069006E0067000500FFFEFF01410002000000FFFEFF0D410065007200690061006C002000530075007200760065007900000000000000FFFEFF014B0002000000FFFEFF1F53007500720076006500790020002F00
310
20004D0061007000700069006E006700200028005500730065007200200044006500660069006E00650064002900000000000000FFFEFF014A0002000000FFFEFF1F53007500720076006500790020002F0020004D0061007000700069006E006700200028005500730065007200200044006500660069006E006500640029
310
00000000000000FFFEFF01490002000000FFFEFF0E4400690067006900740061006C002000530075007200760065007900000000000000FFFEFF01460002000000FFFEFF0C4600690065006C006400200053007500720076006500790000000000000000000000FFFEFF01440002000000FFFEFF07500072006F0063006500
310
730073000E00FFFEFF01410002000000FFFEFF0C500072006F00630065007300730020004100690072007300000000000000FFFEFF01520002000000FFFEFF19500072006F006300650073007300200044007200610069006E0073002000260020005200650063006C00610069006D007300000000000000FFFEFF01510002
310
000000FFFEFF11500072006F0063006500730073002000450071007500690070006D0065006E007400000000000000FFFEFF01500002000000FFFEFF0E500072006F006300650073007300200050006900700069006E006700000000000000FFFEFF014F0002000000FFFEFF0B500072006F00630065007300730020004F00
310
69006C00000000000000FFFEFF01470002000000FFFEFF0D500072006F006300650073007300200047006100730065007300000000000000FFFEFF01580002000000FFFEFF0F500072006F00630065007300730020004500780068006100750073007400000000000000FFFEFF01570002000000FFFEFF0E500072006F0063
310
006500730073002000570061007400650072007300000000000000FFFEFF01450002000000FFFEFF12500072006F006300650073007300200045006C0065006300740072006900630061006C00000000000000FFFEFF01560002000000FFFEFF0E500072006F0063006500730073002000560061006300750075006D000000
310
00000000FFFEFF01440002000000FFFEFF12500072006F0063006500730073002000440065006D006F006C006900740069006F006E00000000000000FFFEFF01430002000000FFFEFF11500072006F00630065007300730020004300680065006D006900630061006C007300000000000000FFFEFF01540002000000FFFEFF
310
18500072006F006300650073007300200045006E0074007200610069006E0065006400200053006F006C00690064007300000000000000FFFEFF01530002000000FFFEFF0C500072006F0063006500730073002000530069007400650000000000000000000000FFFEFF01540002000000FFFEFF12540065006C0065006300
310
6F006D006D0075006E00690063006100740069006F006E0073000900FFFEFF01410002000000FFFEFF0E41007500640069006F0020002F002000560069007300750061006C00000000000000FFFEFF014E0002000000FFFEFF0D440061007400610020004E006500740077006F0072006B007300000000000000FFFEFF014D
310
0002000000FFFEFF0A4D006F006E00690074006F00720069006E006700000000000000FFFEFF014B0002000000FFFEFF21540065006C00650063006F006D006D0075006E00690063006100740069006F006E007300200028005500730065007200200044006500660069006E00650064002900000000000000FFFEFF014A00
310
02000000FFFEFF21540065006C00650063006F006D006D0075006E00690063006100740069006F006E007300200028005500730065007200200044006500660069006E00650064002900000000000000FFFEFF01490002000000FFFEFF0849006E0074006500720063006F006D00000000000000FFFEFF01590002000000FF
310
FEFF0853006500630075007200690074007900000000000000FFFEFF01430002000000FFFEFF1143006C006F0063006B00200061006E0064002000500072006F006700720061006D00000000000000FFFEFF01540002000000FFFEFF09540065006C006500700068006F006E00650000000000000000000000FFFEFF014300
310
02000000FFFEFF0543006900760069006C000900FFFEFF01500002000000FFFEFF0C43006900760069006C00200050006100760069006E006700000000000000FFFEFF014B0002000000FFFEFF1443006900760069006C00200028005500730065007200200044006500660069006E00650064002900000000000000FFFEFF
310
014A0002000000FFFEFF1443006900760069006C00200028005500730065007200200044006500660069006E00650064002900000000000000FFFEFF01490002000000FFFEFF1243006900760069006C00200049006D00700072006F00760065006D0065006E0074007300000000000000FFFEFF01470002000000FFFEFF0D
310
43006900760069006C002000470072006100640069006E006700000000000000FFFEFF01550002000000FFFEFF0F43006900760069006C0020005500740069006C0069007400690065007300000000000000FFFEFF01440002000000FFFEFF1043006900760069006C002000440065006D006F006C006900740069006F006E
310
00000000000000FFFEFF01540002000000FFFEFF1443006900760069006C0020005400720061006E00730070006F00720074006100740069006F006E00000000000000FFFEFF01530002000000FFFEFF0A43006900760069006C002000530069007400650000000000000000000000FFFEFF01530002000000FFFEFF0A5300
310
740072007500630074007500720061006C000600FFFEFF014B0002000000FFFEFF195300740072007500630074007500720061006C00200028005500730065007200200044006500660069006E00650064002900000000000000FFFEFF014A0002000000FFFEFF195300740072007500630074007500720061006C00200028
310
005500730065007200200044006500660069006E00650064002900000000000000FFFEFF01460002000000FFFEFF125300740072007500630074007500720061006C0020004600720061006D0069006E006700000000000000FFFEFF01440002000000FFFEFF155300740072007500630074007500720061006C0020004400
310
65006D006F006C006900740069006F006E00000000000000FFFEFF01420002000000FFFEFF175300740072007500630074007500720061006C002000530075006200730074007200750063007400750072006500000000000000FFFEFF01530002000000FFFEFF0F5300740072007500630074007500720061006C00200053
310
0069007400650000000000000000000000FFFEFF01420002000000FFFEFF0C470065006F0074006500630068006E006900630061006C000200FFFEFF014B0002000000FFFEFF1B470065006F0074006500630068006E006900630061006C00200028005500730065007200200044006500660069006E006500640029000000
310
00000000FFFEFF014A0002000000FFFEFF1B470065006F0074006500630068006E006900630061006C00200028005500730065007200200044006500660069006E00650064002900000000000000000000000180FFFEFF054D0061006A006F0072000300000000000000000000000000000000000000000000000000000000
310
000000FFFEFF002300FFFEFF052D004400650074006C0002000000FFFEFF06440065007400610069006C00000000000000FFFEFF052D0043006C006E00670002000000FFFEFF074300650069006C0069006E006700000000000000FFFEFF052D0052006F006F00660002000000FFFEFF0452006F006F006600000000000000
310
FFFEFF052D00470072006900640002000000FFFEFF0A470072006900640020006C0069006E0065007300000000000000FFFEFF052D00460069007200650002000000FFFEFF1446006900720065002000700072006F00740065006300740069006F006E00200070006C0061006E00000000000000FFFEFF052D00500072006F
310
00740002000000FFFEFF1646006900720065002000700072006F00740065006300740069006F006E002000730079007300740065006D00000000000000FFFEFF052D0043006F006C00730002000000FFFEFF0743006F006C0075006D006E007300000000000000FFFEFF052D004300740072006C0002000000FFFEFF0E4300
310
6F006E00740072006F006C00200050006F0069006E0074007300000000000000FFFEFF052D004500710070006D0002000000FFFEFF09450071007500690070006D0065006E007400000000000000FFFEFF052D00570061006C006C0002000000FFFEFF05570061006C006C007300000000000000FFFEFF052D00500072006F
310
00700002000000FFFEFF08500072006F0070006500720074007900000000000000FFFEFF052D00530065006300740002000000FFFEFF07530065006300740069006F006E00000000000000FFFEFF052D0050006F006C00790002000000FFFEFF0850006F006C00790067006F006E007300000000000000FFFEFF052D004C00
310
69007400650002000000FFFEFF114C00690067006800740069006E006700200066006900780074007500720065007300000000000000FFFEFF052D00410063006300730002000000FFFEFF0B410063006300650073007300200070006C0061006E00000000000000FFFEFF052D00480056004100430002000000FFFEFF0448
310
00560041004300000000000000FFFEFF052D0045006C006500630002000000FFFEFF0A45006C0065006300740072006900630061006C00000000000000FFFEFF052D0054006F0070006F0002000000FFFEFF0A54006F0070006F00670072006100700068007900000000000000FFFEFF052D0043006F006400650002000000
310
FFFEFF1443006F0064006500200063006F006D0070006C00690061006E0063006500200070006C0061006E00000000000000FFFEFF052D0047006C0061007A0002000000FFFEFF0747006C0061007A0069006E006700000000000000FFFEFF052D00540069006E006E0002000000FFFEFF1E54007200690061006E00670075
310
006C00610074006500640020006900720072006500670075006C006100720020006E006500740077006F0072006B00000000000000FFFEFF052D0050006C0061006E0002000000FFFEFF154B0065007900200070006C0061006E002000280066006C006F006F007200200070006C0061006E002900000000000000FFFEFF05
310
2D0046006C006F00720002000000FFFEFF0546006C006F006F007200000000000000FFFEFF052D004600750072006E0002000000FFFEFF0B4600750072006E0069007300680069006E0067007300000000000000FFFEFF052D004200650061006D0002000000FFFEFF054200650061006D007300000000000000FFFEFF052D
310
0044006F006F00720002000000FFFEFF0544006F006F0072007300000000000000FFFEFF052D0041006E006E006F0002000000FFFEFF0A41006E006E006F0074006100740069006F006E00000000000000FFFEFF052D00450076006100630002000000FFFEFF0F450076006100630075006100740069006F006E0020007000
310
6C0061006E00000000000000FFFEFF052D00530069007400650002000000FFFEFF095300690074006500200070006C0061006E00000000000000FFFEFF052D0043006F006E00760002000000FFFEFF1143006F006E0076006500790069006E0067002000730079007300740065006D007300000000000000FFFEFF052D0053
310
006C006100620002000000FFFEFF0553006C00610062007300000000000000FFFEFF052D0043006F006D006D0002000000FFFEFF12540065006C00650063006F006D006D0075006E00690063006100740069006F006E007300000000000000FFFEFF052D005300740072006D0002000000FFFEFF0844007200610069006E00
310
610067006500000000000000FFFEFF052D00410072006500610002000000FFFEFF044100720065006100000000000000FFFEFF052D0045006C006500760002000000FFFEFF0945006C00650076006100740069006F006E000000000000000180FFFEFF074D0069006E006F00720020003100040000000000000000F00E7704
310
00000000000000000000000000000000F00000FFFEFF006A00FFFEFF052D004F00700065006E0002000000FFFEFF084F00700065006E0069006E0067007300000000000000FFFEFF052D005300690067006E0002000000FFFEFF055300690067006E007300000000000000FFFEFF052D0043006C006E00670002000000FFFE
310
FF074300650069006C0069006E006700000000000000FFFEFF052D00570069006400650002000000FFFEFF19570069006400650020007700650069006700680074002000670072006100700068006900630020006C0069006E0065007300000000000000FFFEFF052D00530044004600460002000000FFFEFF105300750070
310
0070006C0079002000640069006600660075007300650072007300000000000000FFFEFF052D004D0063007500740002000000FFFEFF164D00610069006E00200063007500740020006C0069006E006500200065006C0065006D0065006E0074007300000000000000FFFEFF052D00470072006900640002000000FFFEFF04
310
4700720069006400000000000000FFFEFF052D00460069007200650002000000FFFEFF0A46006900720065002000770061006C006C007300000000000000FFFEFF052D00410062006F00760002000000FFFEFF0E45006C0065006D0065006E00740073002000610062006F0076006500000000000000FFFEFF052D00500072
310
006F00660002000000FFFEFF08500072006F00660069006C0065007300000000000000FFFEFF052D00530079006D00620002000000FFFEFF07530079006D0062006F006C007300000000000000FFFEFF052D00480065007600790002000000FFFEFF1A48006500610076007900200077006500690067006800740020006700
310
72006100700068006900630020006C0069006E0065007300000000000000FFFEFF052D00430061007600690002000000FFFEFF06430061007600690074007900000000000000FFFEFF052D005500740069006C0002000000FFFEFF095500740069006C0069007400690065007300000000000000FFFEFF052D004E006F0074
310
00650002000000FFFEFF054E006F00740065007300000000000000FFFEFF052D00530065006100740002000000FFFEFF07530065006100740069006E006700000000000000FFFEFF052D00460072006500650002000000FFFEFF0C46007200650065007300740061006E00640069006E006700000000000000FFFEFF052D00
310
460061007300630002000000FFFEFF074600610073006300690061007300000000000000FFFEFF052D00500072006800740002000000FFFEFF0E5000610072007400690061006C002000680065006900670068007400000000000000FFFEFF052D004D00610072006B0002000000FFFEFF1D4D00610072006B006500720073
310
002C00200062007200650061006B0020006D00610072006B0073002C0020006C00650061006400650072007300000000000000FFFEFF052D00530070006300650002000000FFFEFF0553007000610063006500000000000000FFFEFF052D004900640065006E0002000000FFFEFF134900640065006E007400690066006900
310
63006100740069006F006E0020005400610067007300000000000000FFFEFF052D0057006B007300660002000000FFFEFF1E530079007300740065006D00200077006F0072006B0020007300750072006600610063006500200063006F006D0070006F006E0065006E0074007300000000000000FFFEFF052D005200610069
310
00730002000000FFFEFF06520061006900730065006400000000000000FFFEFF052D004A0061006D00620002000000FFFEFF1544006F006F007200200061006E0064002000770069006E0064006F00770020006A0061006D0062007300000000000000FFFEFF052D00450076007400720002000000FFFEFF1B45006C006500
310
7600610074006F00720020006300610072007300200061006E0064002000650071007500690070006D0065006E007400000000000000FFFEFF052D00540065007800740002000000FFFEFF045400650078007400000000000000FFFEFF052D004500710070006D0002000000FFFEFF09450071007500690070006D0065006E
310
007400000000000000FFFEFF052D00570061006C006C0002000000FFFEFF05570061006C006C007300000000000000FFFEFF052D00460069006C00650002000000FFFEFF0D460069006C006500200063006100620069006E00650074007300000000000000FFFEFF052D004100730073006D0002000000FFFEFF0A41007300
310
730065006D0062006C00690065007300000000000000FFFEFF052D0046006E007300680002000000FFFEFF08460069006E0069007300680065007300000000000000FFFEFF052D004D00610073006B0002000000FFFEFF1241004400540020004D00610073006B0069006E00670020004F0062006A00650063007400000000
310
000000FFFEFF052D005400690074006C0002000000FFFEFF18440072006100770069006E00670020006F0072002000640065007400610069006C0020007400690074006C0065007300000000000000FFFEFF052D004C0069007400650002000000FFFEFF084C00690067006800740069006E006700000000000000FFFEFF05
310
2D00410063006300730002000000FFFEFF06410063006300650073007300000000000000FFFEFF052D004C00610062006C0002000000FFFEFF064C006100620065006C007300000000000000FFFEFF052D00520065006600720002000000FFFEFF195200650066006500720065006E00630065002C00200065007800740065
310
0072006E0061006C002000660069006C0065007300000000000000FFFEFF052D004D00650064006D0002000000FFFEFF1B4D0065006400690075006D0020007700650069006700680074002000670072006100700068006900630020006C0069006E0065007300000000000000FFFEFF052D00530074007200730002000000
310
FFFEFF215300740061006900720020007400720065006100640073002C00200065007300630061006C00610074006F00720073002C0020006C00610064006400650072007300000000000000FFFEFF052D00430075007200740002000000FFFEFF0C4300750072007400610069006E002000570061006C006C000000000000
310
00FFFEFF052D00440065006D006F0002000000FFFEFF0A440065006D006F006C006900740069006F006E00000000000000FFFEFF052D00560069006500770002000000FFFEFF13560069006500770070006F0072007400200044006500660069006E006900740069006F006E00000000000000FFFEFF052D00440069006D00
310
730002000000FFFEFF0A440069006D0065006E00730069006F006E007300000000000000FFFEFF052D0053006C006300650002000000FFFEFF0653006C006900630065007300000000000000FFFEFF052D0043006F006E006E0002000000FFFEFF0B43006F006E006E0065006300740069006F006E007300000000000000FF
310
FEFF052D0042006C006F00770002000000FFFEFF0E45006C0065006D0065006E00740073002000620065006C006F007700000000000000FFFEFF052D00460069006E00650002000000FFFEFF19460069006E00650020007700650069006700680074002000670072006100700068006900630020006C0069006E0065007300
310
000000000000FFFEFF052D00530075007300700002000000FFFEFF12530075007300700065006E00640065006400200065006C0065006D0065006E0074007300000000000000FFFEFF052D004C00650076006C0002000000FFFEFF274C006500760065006C0020006300680061006E006700650073002C002000720061006D
310
00700073002C00200070006900740073002C002000640065007000720065007300730069006F006E007300000000000000FFFEFF052D00460069007800640002000000FFFEFF0F460069007800650064002000650071007500690070006D0065006E007400000000000000FFFEFF052D004F0063006300700002000000FFFE
310
FF1A4F00630063007500700061006E00740020006F007200200065006D0070006C006F0079006500650020006E0061006D0065007300000000000000FFFEFF052D00480069006400650002000000FFFEFF0E480069006400640065006E0020006F0062006A006500630074007300000000000000FFFEFF052D004100640074
310
00760002000000FFFEFF1141006400640069007400690076006500200065006C0065006D0065006E0074007300000000000000FFFEFF052D00520064006D00650002000000FFFEFF1B52006500610064002D006D00650020006C006100790065007200200028006E006F007400200070006C006F0074007400650064002900
310
000000000000FFFEFF052D005300630072006E0002000000FFFEFF14530063007200650065006E006500640020004200610063006B00670072006F0075006E0064007300000000000000FFFEFF052D00460069007800740002000000FFFEFF1170006C0075006D00620069006E006700200066006900780074007500720065
310
007300000000000000FFFEFF052D004C00650067006E0002000000FFFEFF144C006500670065006E00640073002C002000530079006D0062006F006C0020006B00650079007300000000000000FFFEFF052D0043006E007400720002000000FFFEFF0A430065006E007400650072006C0069006E006500000000000000FFFE
310
FF052D00420064007200790002000000FFFEFF0842006F0075006E006400610072007900000000000000FFFEFF052D0050006F007700720002000000FFFEFF0550006F00770065007200000000000000FFFEFF052D00470072007000730002000000FFFEFF06470072006F00750070007300000000000000FFFEFF052D004B
310
00650079006E0002000000FFFEFF084B00650079006E006F00740065007300000000000000FFFEFF052D00420072006300650002000000FFFEFF06420072006100630065007300000000000000FFFEFF052D005300700063006C0002000000FFFEFF0B5300700065006300690061006C007400690065007300000000000000
310
FFFEFF052D004F0074006C006E0002000000FFFEFF074F00750074006C0069006E006500000000000000FFFEFF052D005400700074006E0002000000FFFEFF1154006F0069006C0065007400200070006100720074006900740069006F006E007300000000000000FFFEFF052D005200650066006C0002000000FFFEFF0E52
310
00650066006C0065006300740065006400200050006C0061006E00000000000000FFFEFF052D005400680069006E0002000000FFFEFF195400680069006E0020007700650069006700680074002000670072006100700068006900630020006C0069006E0065007300000000000000FFFEFF052D005000650070006C000200
310
0000FFFEFF06500065006F0070006C006500000000000000FFFEFF052D004F0076006800640002000000FFFEFF084F007600650072006800650061006400000000000000FFFEFF052D004800720061006C0002000000FFFEFF16480061006E0064007200610069006C0073002C002000670075006100720064002000720061
310
0069006C007300000000000000FFFEFF052D004D0061007400630002000000FFFEFF0B4D00610074006300680020006C0069006E0065007300000000000000FFFEFF052D00520044004600460002000000FFFEFF14520065007400750072006E00200061006900720020006400690066006600750073006500720073000000
310
00000000FFFEFF052D00540074006C00620002000000FFFEFF1642006F007200640065007200200061006E00640020007400690074006C006500200062006C006F0063006B00000000000000FFFEFF052D00530077006300680002000000FFFEFF0853007700690074006300680065007300000000000000FFFEFF052D0041
310
00700070006C0002000000FFFEFF0A4100700070006C00690061006E00630065007300000000000000FFFEFF052D00540065006500730002000000FFFEFF094D00610069006E0020007400650065007300000000000000FFFEFF052D005700640077006B0002000000FFFEFF16410072006300680069007400650063007400
310
7500720061006C00200077006F006F00640077006F0072006B00000000000000FFFEFF052D004C0069006E00650002000000FFFEFF0D44006500660069006E0069006E00670020004C0069006E006500000000000000FFFEFF052D004D0061007300730002000000FFFEFF104D0061007300730069006E006700200045006C
310
0065006D0065006E0074007300000000000000FFFEFF052D005400610062006C0002000000FFFEFF0B440061007400610020007400610062006C0065007300000000000000FFFEFF052D00540068006C00640002000000FFFEFF0A5400680072006500730068006F006C0064007300000000000000FFFEFF052D0053006300
310
6800640002000000FFFEFF095300630068006500640075006C0065007300000000000000FFFEFF052D00460075006C006C0002000000FFFEFF0B460075006C006C002D00680065006900670068007400000000000000FFFEFF052D00480065006100640002000000FFFEFF1744006F006F007200200061006E006400200077
310
0069006E0064006F00770020006800650061006400650072007300000000000000FFFEFF052D004D006F007600650002000000FFFEFF124D006F0076006500610062006C0065002000650071007500690070006D0065006E007400000000000000FFFEFF052D00420072006E00670002000000FFFEFF1A4200650061007200
310
69006E0067007300200026002000640069007300740061006E006300650020006C006100620065006C007300000000000000FFFEFF052D0043006F006D00700002000000FFFEFF1349006E007400650072006E0061006C00200063006F006D0070006F006E0065006E0074007300000000000000FFFEFF052D00530074006F
310
00720002000000FFFEFF19530079007300740065006D002000730074006F007200610067006500200063006F006D0070006F006E0065006E0074007300000000000000FFFEFF052D0050006B006E00670002000000FFFEFF075000610072006B0069006E006700000000000000FFFEFF052D004E00690063006E0002000000
310
FFFEFF0F4E006F007400200069006E00200063006F006E0074007200610063007400000000000000FFFEFF052D00430068006100730002000000FFFEFF0543006800610073006500000000000000FFFEFF052D004E0070006C00740002000000FFFEFF204E006F006E002D0070006C006F007400740069006E006700200067
310
00720061007000680069006300200069006E0066006F0072006D006100740069006F006E00000000000000FFFEFF052D005600680063006C0002000000FFFEFF08560065006800690063006C0065007300000000000000FFFEFF052D00520065007600730002000000FFFEFF095200650076006900730069006F006E007300
310
000000000000FFFEFF052D00500061007400740002000000FFFEFF19540065007800740075007200650020006F00720020006800610074006300680020007000610074007400650072006E007300000000000000FFFEFF052D0053006C006100620002000000FFFEFF0553006C00610062007300000000000000FFFEFF052D
310
0043006F006D006D0002000000FFFEFF1A540065006C006500700068006F006E0065002C00200063006F006D006D0075006E00690063006100740069006F006E0073002000000000000000FFFEFF052D00430061007300650002000000FFFEFF08430061007300650077006F0072006B00000000000000FFFEFF052D005200
310
65007600630002000000FFFEFF0F5200650076006900730069006F006E00200063006C006F00750064007300000000000000FFFEFF052D0050006C006E00740002000000FFFEFF0650006C0061006E0074007300000000000000FFFEFF052D00530075006200740002000000FFFEFF14530075006200740072006100630074
310
00690076006500200065006C0065006D0065006E0074007300000000000000FFFEFF052D0050006E006C00730002000000FFFEFF0D530079007300740065006D002000700061006E0065006C007300000000000000FFFEFF052D00520069007300720002000000FFFEFF0C5300740061006900720020007200690073006500
310
72007300000000000000FFFEFF052D00530069006C006C0002000000FFFEFF0C570069006E0064006F0077002000730069006C006C0073000000000000000180FFFEFF074D0069006E006F0072002000320005000000004164642062656C6F77207468652073656C6563746564206974656DFFFEFF001600FFFEFF052D0041
310
0062006F00760002000000FFFEFF0E45006C0065006D0065006E00740073002000610062006F0076006500000000000000FFFEFF052D004E006F007400650002000000FFFEFF16470065006E006500720061006C0020005400650078007400200061006E00640020004E006F00740065007300000000000000FFFEFF052D00
310
460061007300630002000000FFFEFF06460061007300630069006100000000000000FFFEFF052D004900640065006E0002000000FFFEFF0A4900640065006E00740069006600690065007200000000000000FFFEFF052D0055006E006900740002000000FFFEFF0455006E0069007400000000000000FFFEFF052D00540069
310
0074006C0002000000FFFEFF065400690074006C0065007300000000000000FFFEFF052D00440069006D00730002000000FFFEFF0A440069006D0065006E00730069006F006E007300000000000000FFFEFF052D0053006C006300650002000000FFFEFF0653006C006900630065007300000000000000FFFEFF052D004700
310
6C0061007A0002000000FFFEFF0747006C0061007A0069006E006700000000000000FFFEFF052D00480069006400650002000000FFFEFF0F480069006400640065006E00200065006C0065006D0065006E0074007300000000000000FFFEFF052D00420064007200790002000000FFFEFF0D4500640067006500200062006F
310
0075006E006400610072007900000000000000FFFEFF052D00470072007000730002000000FFFEFF06470072006F00750070007300000000000000FFFEFF052D004F0074006C006E0002000000FFFEFF074F00750074006C0069006E006500000000000000FFFEFF052D005200650066006C0002000000FFFEFF0F52006500
310
66006C0065006300740065006400200050006C0061006E007300000000000000FFFEFF052D005400680069006E0002000000FFFEFF0E4D0069006E006F00720020006C0069006E00650077006F0072006B00000000000000FFFEFF052D004C0069006E00650002000000FFFEFF10470065006E006500720061006C0020006C
310
0069006E00650077006F0072006B00000000000000FFFEFF052D004E0070006C00740002000000FFFEFF154E006F006E002D0070006C006F007400740069006E006700200065006C0065006D0065006E0074007300000000000000FFFEFF052D00530066006900740002000000FFFEFF0653006F0066006600690074000000
310
00000000FFFEFF052D00500061007400740002000000FFFEFF0E4800610074006300680020007000610074007400650072006E007300000000000000FFFEFF052D005300630061006C0002000000FFFEFF10470072006100700068006900630061006C0020005300630061006C0065007300000000000000FFFEFF052D0052
310
0069007300720002000000FFFEFF06520069007300650072007300000000000000FFFEFF052D00530069006C006C0002000000FFFEFF05530069006C006C0073000000000000000180FFFEFF06530074006100740075007300060000000000000000A434770470040000B10000005073770400000000050000FFFEFF000F00
310
FFFEFF022D00540002000000FFFEFF0E540065006D0070006F007200610072007900200077006F0072006B00000000000000FFFEFF022D00450002000000FFFEFF124500780069007300740069006E006700200074006F002000720065006D00610069006E00000000000000FFFEFF022D00380002000000FFFEFF07500068
310
0061007300650020003800000000000000FFFEFF022D00390002000000FFFEFF075000680061007300650020003900000000000000FFFEFF022D00360002000000FFFEFF075000680061007300650020003600000000000000FFFEFF022D00370002000000FFFEFF075000680061007300650020003700000000000000FFFE
310
FF022D004E0002000000FFFEFF084E0065007700200077006F0072006B00000000000000FFFEFF022D00340002000000FFFEFF075000680061007300650020003400000000000000FFFEFF022D00350002000000FFFEFF075000680061007300650020003500000000000000FFFEFF022D00320002000000FFFEFF07500068
310
0061007300650020003200000000000000FFFEFF022D004D0002000000FFFEFF114900740065006D007300200074006F0020006200650020006D006F00760065006400000000000000FFFEFF022D00330002000000FFFEFF075000680061007300650020003300000000000000FFFEFF022D00310002000000FFFEFF075000
310
680061007300650020003100000000000000FFFEFF022D00460002000000FFFEFF0B460075007400750072006500200077006F0072006B00000000000000FFFEFF022D00440002000000FFFEFF144500780069007300740069006E006700200074006F002000640065006D006F006C006900730068000000000000000600FF
310
FF04001A004163416563556B4C61796572436F6D706F6E656E744669656C64FFFEFF174400690073006300690070006C0069006E0065002000440065007300690067006E00610074006F0072002000310001000000FFFEFF0440002C0040004000000000000100000000FFFEFF014100000000000780FFFEFF174400690073
310
006300690070006C0069006E0065002000440065007300690067006E00610074006F0072002000320001000000FFFEFF0440002C0040004000010000000100000000FFFEFF014400000000000780FFFEFF054D0061006A006F00720005000000FFFEFF052D00400040004000400000000000010000002DFFFEFF052D005700
310
61006C006C00000000000780FFFEFF064D0069006E006F007200310005000000FFFEFF022D002A0001000000010000002DFFFEFF052D004900640065006E00000000000780FFFEFF064D0069006E006F007200320005000000FFFEFF022D002A0001000000010000002DFFFEFF052D005400650078007400000000000780FF
310
FEFF0653007400610074007500730002000000FFFEFF022D002A0001000000010000002DFFFEFF022D004E0000000000050000010203040500FFFEFF00FFFEFF0320002D002000FFFEFF022C002000FFFEFF012000FFFEFF0320002D002000FFFEFF00
  0
XRECORD
  5
AF40E
102
{ACAD_REACTORS
330
A21DF
102
}
330
A21DF
100
AcDbXrecord
280
     1
102
DISPLAYNAME
  1
Imperial24
102
FLAGS
 90
        0
  0
XRECORD
  5
AF40D
102
{ACAD_REACTORS
330
A21DD
102
}
330
A21DD
100
AcDbXrecord
280
     1
102
DISPLAYNAME
  1
Imperial24
102
FLAGS
 90
        0
  0
CELLSTYLEMAP
  5
AF40C
102
{ACAD_REACTORS
330
B4E
102
}
330
B4E
100
AcDbCellStyleMap
 90
        3
300
CELLSTYLE
  1
TABLEFORMAT_BEGIN
 90
        5
170
     1
 91
        0
 92
    32768
 62
   257
 93
        1
300
CONTENTFORMAT
  1
CONTENTFORMAT_BEGIN
 90
        0
 91
        0
 92
      512
 93
        0
300

 40
0.0
140
1.0
 94
        5
 62
     0
340
11
144
0.25
309
CONTENTFORMAT_END
171
     1
301
MARGIN
  1
CELLMARGIN_BEGIN
 40
0.06
 40
0.06
 40
0.06
 40
0.06
 40
0.18
 40
0.18
309
CELLMARGIN_END
 94
        6
 95
        1
302
GRIDFORMAT
  1
GRIDFORMAT_BEGIN
 90
        0
 91
        1
 62
     0
 92
       -2
340
0
 93
        0
 40
0.045
309
GRIDFORMAT_END
 95
        2
302
GRIDFORMAT
  1
GRIDFORMAT_BEGIN
 90
        0
 91
        1
 62
     0
 92
       -2
340
0
 93
        0
 40
0.045
309
GRIDFORMAT_END
 95
        4
302
GRIDFORMAT
  1
GRIDFORMAT_BEGIN
 90
        0
 91
        1
 62
     0
 92
       -2
340
0
 93
        0
 40
0.045
309
GRIDFORMAT_END
 95
        8
302
GRIDFORMAT
  1
GRIDFORMAT_BEGIN
 90
        0
 91
        1
 62
     0
 92
       -2
340
0
 93
        0
 40
0.045
309
GRIDFORMAT_END
 95
       16
302
GRIDFORMAT
  1
GRIDFORMAT_BEGIN
 90
        0
 91
        1
 62
     0
 92
       -2
340
0
 93
        0
 40
0.045
309
GRIDFORMAT_END
 95
       32
302
GRIDFORMAT
  1
GRIDFORMAT_BEGIN
 90
        0
 91
        1
 62
     0
 92
       -2
340
0
 93
        0
 40
0.045
309
GRIDFORMAT_END
309
TABLEFORMAT_END
  1
CELLSTYLE_BEGIN
 90
        1
 91
        1
300
_TITLE
309
CELLSTYLE_END
300
CELLSTYLE
  1
TABLEFORMAT_BEGIN
 90
        5
170
     1
 91
        0
 92
        0
 62
   257
 93
        1
300
CONTENTFORMAT
  1
CONTENTFORMAT_BEGIN
 90
        0
 91
        0
 92
      512
 93
        0
300

 40
0.0
140
1.0
 94
        5
 62
     0
340
11
144
0.18
309
CONTENTFORMAT_END
171
     1
301
MARGIN
  1
CELLMARGIN_BEGIN
 40
0.06
 40
0.06
 40
0.06
 40
0.06
 40
0.18
 40
0.18
309
CELLMARGIN_END
 94
        6
 95
        1
302
GRIDFORMAT
  1
GRIDFORMAT_BEGIN
 90
        0
 91
        1
 62
     0
 92
       -2
340
0
 93
        0
 40
0.045
309
GRIDFORMAT_END
 95
        2
302
GRIDFORMAT
  1
GRIDFORMAT_BEGIN
 90
        0
 91
        1
 62
     0
 92
       -2
340
0
 93
        0
 40
0.045
309
GRIDFORMAT_END
 95
        4
302
GRIDFORMAT
  1
GRIDFORMAT_BEGIN
 90
        0
 91
        1
 62
     0
 92
       -2
340
0
 93
        0
 40
0.045
309
GRIDFORMAT_END
 95
        8
302
GRIDFORMAT
  1
GRIDFORMAT_BEGIN
 90
        0
 91
        1
 62
     0
 92
       -2
340
0
 93
        0
 40
0.045
309
GRIDFORMAT_END
 95
       16
302
GRIDFORMAT
  1
GRIDFORMAT_BEGIN
 90
        0
 91
        1
 62
     0
 92
       -2
340
0
 93
        0
 40
0.045
309
GRIDFORMAT_END
 95
       32
302
GRIDFORMAT
  1
GRIDFORMAT_BEGIN
 90
        0
 91
        1
 62
     0
 92
       -2
340
0
 93
        0
 40
0.045
309
GRIDFORMAT_END
309
TABLEFORMAT_END
  1
CELLSTYLE_BEGIN
 90
        2
 91
        1
300
_HEADER
309
CELLSTYLE_END
300
CELLSTYLE
  1
TABLEFORMAT_BEGIN
 90
        5
170
     1
 91
        0
 92
        0
 62
   257
 93
        1
300
CONTENTFORMAT
  1
CONTENTFORMAT_BEGIN
 90
        0
 91
        0
 92
      512
 93
        0
300

 40
0.0
140
1.0
 94
        2
 62
     0
340
11
144
0.18
309
CONTENTFORMAT_END
171
     1
301
MARGIN
  1
CELLMARGIN_BEGIN
 40
0.06
 40
0.06
 40
0.06
 40
0.06
 40
0.18
 40
0.18
309
CELLMARGIN_END
 94
        6
 95
        1
302
GRIDFORMAT
  1
GRIDFORMAT_BEGIN
 90
        0
 91
        1
 62
     0
 92
       -2
340
0
 93
        0
 40
0.045
309
GRIDFORMAT_END
 95
        2
302
GRIDFORMAT
  1
GRIDFORMAT_BEGIN
 90
        0
 91
        1
 62
     0
 92
       -2
340
0
 93
        0
 40
0.045
309
GRIDFORMAT_END
 95
        4
302
GRIDFORMAT
  1
GRIDFORMAT_BEGIN
 90
        0
 91
        1
 62
     0
 92
       -2
340
0
 93
        0
 40
0.045
309
GRIDFORMAT_END
 95
        8
302
GRIDFORMAT
  1
GRIDFORMAT_BEGIN
 90
        0
 91
        1
 62
     0
 92
       -2
340
0
 93
        0
 40
0.045
309
GRIDFORMAT_END
 95
       16
302
GRIDFORMAT
  1
GRIDFORMAT_BEGIN
 90
        0
 91
        1
 62
     0
 92
       -2
340
0
 93
        0
 40
0.045
309
GRIDFORMAT_END
 95
       32
302
GRIDFORMAT
  1
GRIDFORMAT_BEGIN
 90
        0
 91
        1
 62
     0
 92
       -2
340
0
 93
        0
 40
0.045
309
GRIDFORMAT_END
309
TABLEFORMAT_END
  1
CELLSTYLE_BEGIN
 90
        3
 91
        2
300
_DATA
309
CELLSTYLE_END
  0
ENDSEC
  0
SECTION
  2
ACDSDATA
 70
     2
 71
     8
  0
ACDSSCHEMA
 90
        0
  1
AcDb_Thumbnail_Schema
  2
AcDbDs::ID
280
    10
 91
        8
  2
Thumbnail_Data
280
    15
 91
        0
101
ACDSRECORD
 95
        0
 90
        1
  2
AcDbDs::TreatedAsObjectData
280
     1
291
     1
101
ACDSRECORD
 95
        0
 90
        2
  2
AcDbDs::Legacy
280
     1
291
     1
101
ACDSRECORD
  1
AcDbDs::ID
 90
        3
  2
AcDs:Indexable
280
     1
291
     1
101
ACDSRECORD
  1
AcDbDs::ID
 90
        4
  2
AcDbDs::HandleAttribute
280
     7
282
     1
  0
ACDSSCHEMA
 90
        1
  1
AcDbDs::TreatedAsObjectDataSchema
  2
AcDbDs::TreatedAsObjectData
280
     1
 91
        0
  0
ACDSSCHEMA
 90
        2
  1
AcDbDs::LegacySchema
  2
AcDbDs::Legacy
280
     1
 91
        0
  0
ACDSSCHEMA
 90
        3
  1
AcDbDs::IndexedPropertySchema
  2
AcDs:Indexable
280
     1
 91
        0
  0
ACDSSCHEMA
 90
        4
  1
AcDbDs::HandleAttributeSchema
  2
AcDbDs::HandleAttribute
280
     7
 91
        1
284
     1
  0
ACDSRECORD
 90
        0
  2
AcDbDs::ID
280
    10
320
A21A1
  2
Thumbnail_Data
280
    15
 94
     3293
310
89504E470D0A1A0A0000000D4948445200000100000000C508030000008CFEDCE700000300504C5445FFFFFF000000C8C8C80000000000000000000000000000000000000000000000000000330000660000990000CC0000FF0033000033330033660033990033CC0033FF0066000066330066660066990066CC0066FF0099
310
000099330099660099990099CC0099FF00CC0000CC3300CC6600CC9900CCCC00CCFF00FF0000FF3300FF6600FF9900FFCC00FFFF3300003300333300663300993300CC3300FF3333003333333333663333993333CC3333FF3366003366333366663366993366CC3366FF3399003399333399663399993399CC3399FF33CC00
310
33CC3333CC6633CC9933CCCC33CCFF33FF0033FF3333FF6633FF9933FFCC33FFFF6600006600336600666600996600CC6600FF6633006633336633666633996633CC6633FF6666006666336666666666996666CC6666FF6699006699336699666699996699CC6699FF66CC0066CC3366CC6666CC9966CCCC66CCFF66FF0066
310
FF3366FF6666FF9966FFCC66FFFF9900009900339900669900999900CC9900FF9933009933339933669933999933CC9933FF9966009966339966669966999966CC9966FF9999009999339999669999999999CC9999FF99CC0099CC3399CC6699CC9999CCCC99CCFF99FF0099FF3399FF6699FF9999FFCC99FFFFCC0000CC00
310
33CC0066CC0099CC00CCCC00FFCC3300CC3333CC3366CC3399CC33CCCC33FFCC6600CC6633CC6666CC6699CC66CCCC66FFCC9900CC9933CC9966CC9999CC99CCCC99FFCCCC00CCCC33CCCC66CCCC99CCCCCCCCCCFFCCFF00CCFF33CCFF66CCFF99CCFFCCCCFFFFFF0000FF0033FF0066FF0099FF00CCFF00FFFF3300FF3333
310
FF3366FF3399FF33CCFF33FFFF6600FF6633FF6666FF6699FF66CCFF66FFFF9900FF9933FF9966FF9999FF99CCFF99FFFFCC00FFCC33FFCC66FFCC99FFCCCCFFCCFFFFFF00FFFF33FFFF66FFFF99FFFFCCFFFFFF0000000D0D0D1A1A1A2828283535354343435050505D5D5D6B6B6B787878868686939393A1A1A1AEAEAEBB
310
BBBBC9C9C9D6D6D6E4E4E4F1F1F1FFFFFF000000000000000000000000000000000000000000000000000000000000B0E2D235000007FB4944415478DAED9D4B96A3300C45B522F63FCA4ADEA8C63DF0123A31FE23830143E4205757C0391537BAE8676108FD7B78A37FF4DCA6001480025802F8FBFBFCFEE86B1B801F6EAD
310
1AF0ABAD090029808703F853000A4001A81354006A020A4001280075820A404D40017CA901783480B7F89710180500E6E67BBE9FBFFDB34ED0CA687F5900A754630400081A401500BF6D0288365018C4FE362200D01280738A8F7082417EFFD23928480700D6095A2740ED7A3EAE13447082CF04808A13BC1BC0B74C2091BF
310
4C85F7B9FA310120973FD9EF3935900B00549CFF5E816F1000289220FA26802F384194AFA7673D630100AB05CFF1014BF94B00A05FCE0451F3824D89D0F80058FB6FCF048707B0947F19066F0670AB1364E55FFA804E89A03C0015F9176EBF574894660275F98B54F84733C1B5F3FF845478C5FEE909006AF20B4C85A7697A
310
BF7C76DCAEFF3D7410EEC3B05BD84130EFAE4681AFCE0526D73E473E390EB67F08806D56F209764CCC6F64008A9A686371FC1A13F0B2470AD36900984702E6FD9942311768AB095E0FE0556F872E57D80FBACFC77DFB1AD2C01D45D11B34C035F3FEF9FC8B9DA3176CEC81FAE1EC411BD80E7827E8917C0B8071CD1E71DA39
310
E499DE87990E3777603BC8A380202758D580C3D54F3F9CF379B1C31744445484AE00E0435FE840642ADCD30482057C4670FAEF3AA1F60379A9B049248F9D0300660FE846B0927FCEFFDC89675E2480B0173BFB01B8E2DE3CC21C0B103B451420E9000EC96F3F6692F8973B83C40B92A428C09AC0EE830A69AE49E2DF3C9CB5
310
866C4A5CCA7F3203381D053A68405CFD6092F847A903E47D7F4B2678F974F8BC06C46A47EAFFED7070CA201A80CB038CDF353B3520496CED29B75A605C061CB48007D021093EEB04B93C60178074721B4D3EC903EAF2DFED049B27437B0E2A4BECE700083F1CDC3CC85C94FE758902273500CB5C107E38DB930EE0A4063035
310
7E70D3611900FA9B00A80E204E87E87AF94F0038630260664370C3B999D116000157868EE70158C6742FB7CF04E146AE0190B052F468260830B32184E95462062BF237D704B75283FB53612CBB1F1B081A3F1080432680EA6C30D603BC3D8801D06A0207E58F1A30D703A23DD46340AFDB05FA3AC16D00BCFC640198E0F95C
310
45C8AC054141A9709C0C6D1E5345FE1980CB7D5C45C8DC91059D04B0C803B600D4E4A72C154E2E125C2F7FDF54780340557E77AD33CB040702D0AA0175F9FD7C38CD043700C89C0EAF1ED38AFC6E3E9CC96CD26C804DA604AC14DD03A05CE455D6C41C00983600B53C40AA132C0F0F654D0CD99521935C19120C604718746B
310
002AF2FB30186B822696892500A09A0634274239002C6B62262905C5BC78D5A2F06D007B5261D80555A8CA9FA7C2265406DB9DAA887A401B00100F20A6C27E38BAA1DD3319825BF5035E7EE703900F778BFC7701F8ACA37BFF80977F5400A509AC59805B0A08567ECA8A6261B8F5B2126E4C84AA05913C0F583922BF8A1060
310
E5FFA8008AE136D2EA340C4A990CD58FE46DFFD3FBE7F5E2CF7FA80AA6C34902F0771AC0AC000E008801001A0EC00E137016F09A2AF2534885A9C902FA3D44E6260D98922DB80279B652B425CF91341D6ED180B84505C03E0DF87A41E4B5A74D0980295D58CDECE5EF8805D07A6CE52AFADAAA7AB099FE2D048E99C08B5E6C
310
5248A654FD704B05DB2FE53739001A0A80BD90730800961F070907F0A21B00906413A07E2600E6E3E0FF1F394EB015408313040D086077188CB757F1F1AEF2266D6743B73C4FB02D13C41A033F19A8CA9ACD05B0D0A52100B8CAE63C9FF759DDC6D63940832500231CC0629114624DBFB921FB70BE4ED08CA701BE4CE4F16C
310
6FE1FF3CD38030336A0570F5031599820873CFD04E006E29C82C6845038C5C00618178BC941300141CEA5BC4BEBF36942F909002A0E5A629B8A28E27C26E9393EF84F66560C47BC7BC33F5702402308B7B8610E7F4DE3A982D655B247D848AB9896BE6C4F8000EC0546B5994FF08376FAC0EB8F4C6D74FB21C213434DF897E
310
6271580700D5E24FA2C0C64198A5FE6476FE4D9BFACC7F531DA99B09F44F85B7003071D232286EB43559BDAC56471308C0346BC0E2DE5AA6338006EC3601325C9C5C76ECCF8A06F40C833D016C9EB7EC7EE2B5CE16002313C0B6E59ADACDC57967540DA0FB34C08800404235E08B15A19544683F80FA485DE7027D7DC06694
310
6B3781B538291700D18A48FBF2802AA1CE73810B0A2235A5367CC564A553B51105D07736B8E470FA919A1D4CA0B0AA76E72F0240A552B84B038EB6DB001C79A0628B06D02F0320DA980C09699702588B728F0070D2C9CB0170F8C1CA350DA0A700E035808603F0D711003D1080E8A60014C0F54E5001A80928801F0570D177
310
210F020040C7FB16867382C5CD1E0F04B0D80FF586F0BC534A1E9DEEBBE186BFECC9EA577D7DC47526C03D0DEF28803E373FDD0B807F1CD60A80E231B80E1BBA7D81F6970164CFFF660010725D2876C70380F48B90C397E2FAA77FA3FC6AF04CDF39BB106F02F4C7A87C088494DCC839DF03BBB0ECD210A209D0104E900340
310
E16CD3892F43BFBBF53301CABE0E7CE054E03880E0F0A213CC82E257C56ABF3A7A0C807F0CA6FFCE0330FF25C57810631E816E31F78B01B847610427C82536B40A00630158A6C2C8C220038078007745BC1B00ACA445192626F68B9A411E9D0E37CD068BFC374B041F510F2801E0A7003CBE22F4A49AA05E17D0AAB0025000
310
0A409DA002501350000A4001A81354006A020A4001280075820A404D4001280005A04EF041007EB8B599C0E7EF7EF5B545031ED41480025000FFECCB93DBE301FC07292C8AD6B13293A40000000049454E44AE426082CF7D50D8B95ADE551A3A8C11351E06C0FDB193283D54F6EB3F1D00CD0442C9166ABDDF73003002B4F4
310
7FC150F21F9B102180258747FB1FE470978CD0B254B5584F13220A4001288007394105A026A0001480025027A800D4041480025000EA0415809A800250000A409DA002501350000A4001A8137C3C800797361398AE7BEA6B8B06BCA8280005A000FED9973797D703F80F483056FC0F94E2B20000000049454E44AE4260823D
310
80FFA6BD4883BDDC5A6A0000000049454E44AE426082A90694DBDDF47700907C007F7AE2FF3B22537C680C691448FFFF35880074747BC50747652A9C01003E04809CCE5091FF82367056D819FA29D447ED395E4B888CDBA08D00785099009C768213806902138009C004603AC1B701F0E09267026BBDA7BEE768C08BCA0460
310
023001F8A7DFDE5C5E0FC07F153036D95C42CA8A0000000049454E44AE4260824E44AE426082BAC014C16300862E292EB09D35EC6B02033E552600138009C0BF8F97CF03F01F3BFEE972AD450A590000000049454E44AE426082807F1F2F9F07E03FCF7BC2D0801C39B80000000049454E44AE426082
  0
ACDSRECORD
 90
        0
  2
AcDbDs::ID
280
    10
320
A21B9
  2
Thumbnail_Data
280
    15
 94
     2809
310
89504E470D0A1A0A0000000D4948445200000100000000B5080300000087DCD12600000300504C5445FFFFFF000000C8C8C80000000000000000000000000000000000000000000000000000330000660000990000CC0000FF0033000033330033660033990033CC0033FF0066000066330066660066990066CC0066FF0099
310
000099330099660099990099CC0099FF00CC0000CC3300CC6600CC9900CCCC00CCFF00FF0000FF3300FF6600FF9900FFCC00FFFF3300003300333300663300993300CC3300FF3333003333333333663333993333CC3333FF3366003366333366663366993366CC3366FF3399003399333399663399993399CC3399FF33CC00
310
33CC3333CC6633CC9933CCCC33CCFF33FF0033FF3333FF6633FF9933FFCC33FFFF6600006600336600666600996600CC6600FF6633006633336633666633996633CC6633FF6666006666336666666666996666CC6666FF6699006699336699666699996699CC6699FF66CC0066CC3366CC6666CC9966CCCC66CCFF66FF0066
310
FF3366FF6666FF9966FFCC66FFFF9900009900339900669900999900CC9900FF9933009933339933669933999933CC9933FF9966009966339966669966999966CC9966FF9999009999339999669999999999CC9999FF99CC0099CC3399CC6699CC9999CCCC99CCFF99FF0099FF3399FF6699FF9999FFCC99FFFFCC0000CC00
310
33CC0066CC0099CC00CCCC00FFCC3300CC3333CC3366CC3399CC33CCCC33FFCC6600CC6633CC6666CC6699CC66CCCC66FFCC9900CC9933CC9966CC9999CC99CCCC99FFCCCC00CCCC33CCCC66CCCC99CCCCCCCCCCFFCCFF00CCFF33CCFF66CCFF99CCFFCCCCFFFFFF0000FF0033FF0066FF0099FF00CCFF00FFFF3300FF3333
310
FF3366FF3399FF33CCFF33FFFF6600FF6633FF6666FF6699FF66CCFF66FFFF9900FF9933FF9966FF9999FF99CCFF99FFFFCC00FFCC33FFCC66FFCC99FFCCCCFFCCFFFFFF00FFFF33FFFF66FFFF99FFFFCCFFFFFF0000000D0D0D1A1A1A2828283535354343435050505D5D5D6B6B6B787878868686939393A1A1A1AEAEAEBB
310
BBBBC9C9C9D6D6D6E4E4E4F1F1F1FFFFFF000000000000000000000000000000000000000000000000000000000000B0E2D235000007B44944415478DAED9D4992A3301045F344DC7FE593FC552F3B7AA123B49152F3C4649084D41DC6AA2A08E7730E5F4200FD7B79A37F7F5FDC24007A719B00268018C09F6F1BF8B50AE0
310
CFE0AD0E606C9F9F002680096002980026800960029800268009600298001A0600BC1A00647B3380D503E0E3504C4E83E900001B9A0470DE35DA07809207C0FDF9980010E5001C6E3D02801306B91C307208C029822E81EBCA62DB00904C829C1276F879AF00904E826F0100044EF03200C8264172F2DFB8003CFBD76D4060
310
74291CDA7F5AF07406C0B53FAE02E30340F0FA3600487AC17B7200D255C0538234B012CCD84F0807C81714C116012050813609E2150062FB135278600049FB5321803101A4ED0FA5F0B855206F3FD10B740072F6BF440881D2F6C755604C0059FBE324F834806559BE2FEB1B7EABDECB1FED6FBC33D41116AC1BAC072D4BE1
310
4795E0C26D357D610EB27F8CC0DAA02802DC594229E8460068EBE4F84F0068DB2D85E53400A80358FB17E90A360CB60AA11B007CF2EDD0D90AB923EF1FBCBA0960A314BEC303B889EFBFF53F77BEFF0F9FAF813E8220DD81EC202F851F0C01C14D7E66D391000E657F017384EF46752069F85AB8A12498F58013F2873DC0A4
310
BE6F07D92AD0840EB80C807304C1E6AAC3B9F63725852F0D01C03D82F27F6100A051292C7CCBF9ED1100D2344D12122B74877255A00900AEEF0B7F30B3CFFF1980CDFFB6635E1A93C21900FBEDD767FF1400D911703AED56816408ECFE4C26C06508D8FAA73BFE90D89F0FB940019CAB021778801DFEAD0731F9DFE9500100
310
3D0DE0B40758612B5DDEE47F09403943C6FE3600B00E10F6ED3E00EED84ED63F15FF4A015B1D9005F06C082475C02E006E46E3FA47D0AE246C18A4737F9B5278CF67822F059CF10FEB601518BF927F8F7B00125A109C4CB80088A6019CF400247AE0232A35303600A446833E00E8D24A8D02381302880603ACFC8523872A00
310
9E3F33745C07201E0CE861A010707480C8026861A5E8612518C7FF1780F5781B060507D83E27589706770348E43FF9D1849307207A0070280490CCFFE06402CE2C10E50868D403B6D89F1E0DC29B0F30F1504A818708FCD803EA0032F6137B00673E689D5528824DAC0F080743D5CF94B39F01A804A8EAA1E312CD0AA14807
310
D40064ED2798D26FFDC02B067D28C10A80BCFD0CC13D2F30208082FD320ABCF30255002DE5806D2150B25F2A214E26DE49826235455F1EE0FF3298EBD04AC8DA5C0590A9828D26C1F0D385733D6A4280ECF72F7A00B0A30CF21A809CFD724F6F4ED09D126BD803360B211F40C27EF85298849D142EB9D4A300F64861A8E53F
310
39FB0970CE0CD12611D4E27CC03600A00C009D00C88C8CE8967683078017FD20633F7B00688707F405605D47470B2163BF0200BFB8DE65FF1D2100BD062E63BFD235C1CAA37204347062249A142D7D225E450824EDE77343FE3967D4ECBFE4F611572AC1FC27F9C6FF22FF53C67E796E4878AB0E6A35C0D1011D00500EA001
310
201E211829DC11803D21C000B2F62B2DEC85401D404721C02EF0598252116861D703AA934BED9C1DDEE40176E32FF4B1E6041E705B11BC6430F4F908E5019FF8BBA76571012C6452A1B1FFA356CA09FA08BBD6A26900D122710AB6DCD6BCF7F9D865F432117E16B3B43C7C6377E79F340B20FCAA45B0359EAF2EA9F03C80AF
310
B170E339DE1DCCB92300721AFF100024766700ED8600FD1600A871008581D16E0048EC0EBA91C02F0104D712A5AE2D021500345B063F7BDAE25C6416EF89D49547A6BAD4D5D079457495124489811E0C646DF59420225FEA028039A9BF632B2B204F25840044DB00A24552B073FA9B1BBC9DC95B27D83A808407903DAF9FDA
310
52BC85EE7B1E60AEA1DB0AE0811B2A26AE19D20048F8DB0200D83E90F000D12E0012D16AF1AC073886FBBF86D33700DC05128D03F0264561567AE9F0AD6ED5A542A4AF3783EB4AF6D84D0210D135436AB5A34BA5BE5589CF5AADA7C5213656C147012CB9E6557969AADE926075A34DF6348269D87E25FA35D70F1F04909DFB
310
7113A3A620AD96D326FA87ABF4517F933DD27521703F80B84E4A5D9BBCD66E294FA3B508406CF680E8DADA4467480F106E9D8CDF7A7F9007706D19BCD4032ADF5BF06D8BB0E3B9480940C5059E02508F5C5FC688B0E325890E3D80A60734E2014F9E18C90AA1FD0072AD0AE08AB5F2178E06733755A88540E908ED02202A18
310
BB4F07E477BA7828703980D4C828F6F0F4DF6DDDA96500F4388063F76DBA18C00521E0D86E76A26E00643C629F071C6D6D02D85E26686400B6FCE70643CDB4DF0128E9805700A82BC1B10178B7DDF33D805E0220ED01F46E00F442008DB709600298002680096002380200C08B01A83B628FC0E01080F84AF0B70188DEDBFB
310
A49B27C1DAE7C252F48CD8E8C9C1CFB9D2110088BDC10580BD007EF864F19F0048DD0EA3E801294B71EDF3A39F044070176DC60008318A1840471EA01FFF09FBF403B2DF62F89DA7FDBD7700DA52030114867B0080E210B07FDD5912E47B1F41DF0EF6C4C3D0EF6E170270A2A0732970D40374C2B339C0FBEDB346ED393B7A
310
000087AF79E8032859EADCCA10DC01B06F007C2B0C930453899E86064070CB60AAD2511A00FB4DFF00126381C2A7A050F5B73584FCDD683025009FD53C37CF07201E0D0D04E0F53342734E7002980026800960029800268009600298002680E1010CDE360118F9B50AE05D6D029800BE00FEBEB849002F6FFF01837C22C008
310
994BDB0000000049454E44AE426082
  0
ACDSRECORD
 90
        0
  2
AcDbDs::ID
280
    10
320
22
  2
Thumbnail_Data
280
    15
 94
     3005
310
89504E470D0A1A0A0000000D49484452000001000000007B0803000000AC3EAEE200000300504C5445212830000000C8C8C80000000000000000000000000000000000000000000000000000330000660000990000CC0000FF0033000033330033660033990033CC0033FF0066000066330066660066990066CC0066FF0099
310
000099330099660099990099CC0099FF00CC0000CC3300CC6600CC9900CCCC00CCFF00FF0000FF3300FF6600FF9900FFCC00FFFF3300003300333300663300993300CC3300FF3333003333333333663333993333CC3333FF3366003366333366663366993366CC3366FF3399003399333399663399993399CC3399FF33CC00
310
33CC3333CC6633CC9933CCCC33CCFF33FF0033FF3333FF6633FF9933FFCC33FFFF6600006600336600666600996600CC6600FF6633006633336633666633996633CC6633FF6666006666336666666666996666CC6666FF6699006699336699666699996699CC6699FF66CC0066CC3366CC6666CC9966CCCC66CCFF66FF0066
310
FF3366FF6666FF9966FFCC66FFFF9900009900339900669900999900CC9900FF9933009933339933669933999933CC9933FF9966009966339966669966999966CC9966FF9999009999339999669999999999CC9999FF99CC0099CC3399CC6699CC9999CCCC99CCFF99FF0099FF3399FF6699FF9999FFCC99FFFFCC0000CC00
310
33CC0066CC0099CC00CCCC00FFCC3300CC3333CC3366CC3399CC33CCCC33FFCC6600CC6633CC6666CC6699CC66CCCC66FFCC9900CC9933CC9966CC9999CC99CCCC99FFCCCC00CCCC33CCCC66CCCC99CCCCCCCCCCFFCCFF00CCFF33CCFF66CCFF99CCFFCCCCFFFFFF0000FF0033FF0066FF0099FF00CCFF00FFFF3300FF3333
310
FF3366FF3399FF33CCFF33FFFF6600FF6633FF6666FF6699FF66CCFF66FFFF9900FF9933FF9966FF9999FF99CCFF99FFFFCC00FFCC33FFCC66FFCC99FFCCCCFFCCFFFFFF00FFFF33FFFF66FFFF99FFFFCCFFFFFF0000000D0D0D1A1A1A2828283535354343435050505D5D5D6B6B6B787878868686939393A1A1A1AEAEAEBB
310
BBBBC9C9C9D6D6D6E4E4E4F1F1F1FFFFFF000000000000000000000000000000000000000000000000000000000000B21171F6000004A74944415478DAED5C8B75E4200C548D14EC4A540425DC82040890B13777F762194DB2369BACF33C837E7C620087C3E170381C0E87C3E1781C10B19C2BF6E20F44784F0130F3DF5700
310
64DEA3004BBC8BFFD631A0F2C7160DDEDBDB3A7F62C902006E25000E31005EEEEF73F62B360085E766E15FF4FF56854FCF5F06C13DF94BC3DFC605D8F50B7FD82D08A27CB552789B3488FD4BF0DCC30206FE445BE6C61DFC7FE4BFD3F0771103CC200408E918E895DEDCB92A7D7D98060C897B084203639560A8E0E6EDAB30
310
6980E9DCF883180B80895980D001BE10004904E21F0227BE651A7CA000C78C5BF3389F4FE5CFE6EFFC02BC4E834FB4804828E7782F7921D24510530373C36A0CF83B01F2390980D370D80C327BA0FEBC2940EADC2C00D2A1F4BFC934D8FA9ECCE0C6FDE75ECE9FCD8A51035BE093A3C4370A90BB1A987F39341F10C3612312
310
443EC6DCBABC6B7675EA73488D4A7E70132B0B01DF594019F6D7AE2707887605E8B3C02DFE390D601422E0ECF3969682622C7E7025809CEF4AA61FB31394864D7C6301D81502D9FED901F61000BB4A281780919500C393C15D21B41240F2A718909C9F949805B053117559E0FCAEC56F72C1136B00CC57DF8D810F8C88F704
310
C0A11262FE3C1C88B301801D01642174764F385642DCE94900BDF035B43DE286054CFC6B198C51B7004BB3C2D75960E4DFD2601D1783655C1542137F5E0BE312F01D022C2C60E65F4AE11201750FB0E4034B0BC06124544B61AA808A215CC540AB3120CF7A0EFC290A02D6F8695E804516680234FED0B2005D8D70AD80894A
310
50B94DA435A08E3F5900C6950096C602AD10520C205B000EFC7314AC0309F339606501690D24BF3AFE9406AA05A8B9D3D460084E63E07184CFD731F0CF3E00E532407DEC64665B444B838A006909F038BAE9209E15E46954D00D00ECEC0B595A405E349DF8D368A85CA697CF8636C6AC2C20F0A12DF99553B5003813C04404
310
38D6082C40A88BC7E2287E643605885B8FE2588D9F0518F64E60F759ECFE8C6901AA2F70B7970D13BC7B440A90D2FFB602204801104C0B00DFBB00F69FC5E1EF58B380AB20C89B8786A037BD5D64424B69F04C8299F051A75141FA8D4501BA52385E02EB09CAD298710184052002F767A42017599FD6E40E8F3C16585A0058
310
9817EF3649F1D61761155393D7818A003C297222810101A2DC2243135DE7EC99376FA6C2CE69EC0A1026D47017231D81DF25BE223584B25F34045D000B5B25E3BC3B3A9451EE8777CCC77CCA2AD0427050474C2605882702C85D43FD46CA74502E89660550D944957AD545B10055011B4BA3AA3DC7C248368A67A802805101
310
DC02942C706D01F325662D00B4207765015AC3AC00E34E51AD712DD0CF2AE1C70D076E0B502644E807E77FD5D653449A8F0F0DB97C3EDAFAF940C89E00CA1859B180AF60FA39326A10848D709606779260B4801D212CC0E170381C6FC47ECFBD1CE8CBD3B6FC413C0FAF94E85D9B76BCF4BF7E87009D145F08F012AFA9DC70
310
FA2F1F50DAC367DE6100F57FDEF5875F750ABC5280FAD407FC153C4900103B82F17FB9DCD3A208B63260346F69FCFFEA49898F1480C90D596E16005F29C0B805F6EC66E1BDD5229BFBA2B7A49FBC578253019A97EC3B5E70381C0E87C3E170381C0E87E397F1075A336E9D6E630F840000000049454E44AE4260822FF9E1D4
310
50ACCB0000000049454E44AE426082C3127FDF81400535AEE713B0EF61AD71E5FEA500DDD688212DA0582F752DBF4A8026821F033F491020FED613B25FF891CD5A38FE3FCF4E7E7F7F044927D820A00402782201A4AD41FE8FD2E301C13309280FFE25573B66F8E28FF65A601602962C59B264C9922543CB3F14B5230C5F37
310
A0130000000049454E44AE426082B63A0172D86DE1BEC99F97C26C9C0D661AEC860035E6862F46EE7E4109CA2B042C2588E5A1CBDF0E821501688D06FCC37ED0038A1F8ABACF556247F60633FE6AE6AF030284071833BF3D104066373004837E08004C29D09107D852A00B02C49DF4A612EC2708D6F83B202022570C80BA22
310
40505169C1C713201D3FAE83BA22A0DCA847859F4C800EFD5C77FEEE4C001D41406F3F1B5D10D0DF2FA717EA074CBD591D04BB2380CDF59E08A885509F0C748ADF5F1F117E528C3A35B62F0FDB6A4FFDFF4A2F012F01AF6DF40074EA0B2F01BD13F0C680B709BC04BC04BC41F0B5D75E7B75C09B0592FD015EB7AB903D4335
310
250000000049454E44AE426082EB460100919A9EA8071300A300D40BF6DD95B1AF2112CB179C7302088BECE04B8D00207EE3D7C304BC0380C100A4E2F92BBFC25F9C4B846AE9CB058129235D17008554F872004A3A79D041D09D12003DE3E3D50D112FA33DE6B5E203F06C0046EB7F3F9A1706E365003E13F800BC0740210C
310
1ACB973778A60BD848848CF00600FC1E0CA0900AEB2A40ABC5934D2015CFC9FF730C9E1C06131DF8BDC303928E106D88C0FB007837FF7B91FC5157F8B196BEB35D724D5FF61BDFF8C66DC61F34B9BB8815727F670000000049454E44AE4260829BDBCF9FFDE7B6F86BAEBEB7FD6F9F05000E1439BFEB00C66DF46FE78356D4
310
BD7FAB978ABA3FE7EBF6B3EE0B7E98F89DA6056768E3873B7C9A485E9B69F8FE1862663EBF391826400A4F368A133A60E601CE3B764F6A845F16D56B7C923398F8AD8C3E96DBF9A250F863F43F7D9E3DFC9B18DE3A00DA64CDEB6DCABAF3F7815F333EAF44F3F79ECA278D00BEE8B1B366B3AF8A4B9E38BB786EBFBE24341F
310
24D5BC2AEEBF342E391F0A0249AFF8A2D1380FDA7106D038BD7FE187F5F7F9EDFD4E3E538C6C0E15E79C6A5879507380A7759783463D1B875EAC7BC113468E83A49A2AB2BFCE01CFF42EAF81A1970600CFF62E2F4195AF0058EA4C84D92DDFE0001EF7C23370F693BA9EB2AE4CF1DEFD9663CA019C5D5BE1219CF9A55CABFC
310
BB883832C03FC263BCCEA277971BD5AFEA7AA722D5FCE0EE391611BF2343EF82DB7B8B15BC3D141CFD85A23F2C16DE7E98FF8EBFA0FBF3F5DF00FFD9961CFF01CE140027BD33610D0000000049454E44AE426082
  0
ENDSEC
  0
EOF
